Oops, an error
Loading. Please wait.

Going To Pasalacqua Tab

version 1
version 1

Whole song

Interactive

12,671 views 12 this week
5 commentsread comments
1 2 3 4 5
accurate
x 8
add to favorites
launch autoscroll
font size
0
reset
how to read this tab
guitar tuner
Autoscroll
slow
fast
+/-
esc
set tempo
stop
Help us to improve Ultimate-Guitar.com Take our survey!
×
Going to Pasalacqua - Green Day


By: Stephen S.   E-mail: Kerplunk_pezboy@hotmail.com

Intro
e|----|
B|----|
G|-6~-|
D|-7~-|
A|-7~-|
E|-5~-|

Verse
e|-----------------------------------------------|
B|-----------------------------------------------|
G|-------------77777777777-----------------------|
D|-22222222222-77777777777-777777777777777777777-|
A|-22222222222-55555555555-777777777777777777777-|
E|-00000000000-------------555555555555555555555-|

Pre Chorus
e|--------------------------------------------------|
B|--------------------------------------------------|
G|-77777--------------------77777777777-------------|
D|-77777-777777-22222222222-77777777777-77777777777-|
A|-55555-777777-22222222222-55555555555-77777777777-|
E|-------555555-00000000000-------------55555555555-|

Chorus
e|-------------------------------------------------|
B|-------------------------------------------------|
G|-------------------------------------77777777777-|
D|-77777777777-22222222222-44444444444-77777777777-|
A|-77777777777-22222222222-44444444444-55555555555-|
E|-55555555555-00000000000-22222222222-------------|

Bridge
e|-------------|
B|-------------|
G|-------77777-|
D|-77777-77777-|
A|-77777-55555-|
E|-55555-------|
Suggest correction
comments
print report bad tab
5 comments total. Showing first comments.
+1 reply
Donkey Fly 2,606 wrote on August 1 2005, 12:00 am

the intro is wrong.......ive got a dvd of a live performanc ethey did on the warning tour , (GREEN DAY LIVE WITHOUT WARNING - OCTOBER 10TH 2000) And what he does is he uses hammer ons and pull offs ,

this is the correct intro
e|------------------------------------|
b|-2p1h2p1h2p1h2p1h2p1h2p1h2p1h2p1h2--|
g|----------------------------------6-|
d|----------------------------------7-|
a|----------------------------------7-|
e|----------------------------------5-|

+1 reply
Donkey Fly 2,606 wrote on August 1 2005, 12:00 am

5 stars though coz the rest is right

-1 reply
punkdude1337 30 wrote on February 13 2006, 03:51 pm

Copletely wrong, for one thing, you missed the hamer-on, pull-off at the beginning, and there are high pitched notes all the way through.

guest
You may want to rate the tab now too:
select rating
Please do not post tabs as comments. Select "correction" instead!