Oops, an error
Loading. Please wait.

Good Riddance Time Of Your Life Chords

version 1
541,328 views 543 this week
67 commentsread comments
1 2 3 4 5
worth learning
x 101
add to favorites
launch autoscroll
font size
0
reset
transpose
0
reset
simplify chords
display chords
guitar tuner
Autoscroll
slow
fast
+/-
esc
set tempo
stop
Help us to improve Ultimate-Guitar.com Take our survey!
×
[Intro]

  G                              C9             Dsus4
e|-------3--------------3--------------3------------3------|    then it repeats, so it almost
B|----------3-------------3--------------3------------3----|    sounds like it goes C9, Dsus4, G.
G|-------------0------------0--------------0-----2------2--|     So, after the end of the
D|---0--------------0--------------2-----------0-----------|  Dsus4 bit, go straight to the G
A|------------------------------3--------------------------|  bass note.
E|-3--------------3----------------------------------------|


[Verse]

 (play each line twice, then go to chorus)

  G                              C9             Dsus4
e|-------3--------------3--------------3------------3------|    
B|----------3-------------3--------------3------------3----|    
G|-------------0------------0--------------0-----2------2--|    
D|---0--------------0--------------2-----------0-----------|  
A|------------------------------3--------------------------|  
E|-3--------------3----------------------------------------|  

  Em            Dsus4           C9                G
e|------3------------3-------------3------------3----------|   The above line gets played
B|--------3------------3-------------3------------3--------|     twice, then this twice, and that's
G|----------0-----2------2-------------0------------0------|     the verse.  Then the line after 
D|---2----------0---------------2------------0-------------|     that is the chorus.  Not that
A|----------------------------3----------------------------|   complex, but this IS Green Day,
E|-0---------------------------------------3---------------|   after all.


[Chorus]

  Em            G            Em              G
e|------3------------3------------3-----------3------------|
B|--------3------------3------------3-----------3----------|
G|----------0------------0------------0-----------0--------|
D|---2------------0------------2-----------0---------------|
A|---------------------------------------------------------|
E|-0------------3------------0-----------3-----------------|
   
  Em             Dsus4
e|------3---------3------|  it's important that you go straight back into the
B|--------3---------3----|  opening G of the verse, because the Dsus4 sort of leaves you
G|----------0---------2--|  hanging there.  Then play the first half of the verse once
D|---2----------0--------|  through, then start it all over again.
A|-----------------------|
E|-0---------------------|



[Verse 1]

G       C9             Dsus4            G
Another turning point a fork stuck in the road 
G              C9          Dsus4               G   
Time grabs you by the wrist directs you where to go
Em          Dsus4                 C9       G
So make the best of these days and don't ask why
Em         Dsus4         C9                G
It's not a question but a lesson learned in time


[Chorus]

Em                  G        Em              G
It's something unpredictable in the end it's right
Em                  Dsus4        G      
I hope you have the time of your life.  


[Verse 2]

G           C9              Dsus4               G
So take the photographs and stillframes in your mind
G            C9        Dsus4              G
Hang it on a shelf in good health and good time
Em         Dsus4       C9       G
Tatoos and memories and dead skin on trial
Em            Dsus4        C9            G
For what it's worth it was worth all the while


[Chorus]

Em                  G        Em              G
It's something unpredictable in the end it's right
Em                  Dsus4        G      
I hope you have the time of your life.  


[Instrumental]

Em   G    Em    G
Em   Dsus4   G      


[Chorus]

Em                  G        Em              G
It's something unpredictable in the end it's right
Em                  Dsus4        G      
I hope you have the time of your life. 


[Outro]

  G                              C9             Dsus4
e|-------3--------------3--------------3------------3------|    
B|----------3-------------3--------------3------------3----|    
G|-------------0------------0--------------0-----2------2--|    
D|---0--------------0--------------2-----------0-----------|  
A|------------------------------3--------------------------|  
E|-3--------------3----------------------------------------| 

e|---------|
B|---------|
G|--2------|
D|----0----|
A|------0--|  and end on a G
E|---------|
Suggest correction
comments
print report bad tab
67 comments total. Showing first comments.
0 reply
cptkirk51 0 wrote on December 31 2001, 12:00 am

dude, you did some real bitchin tab work here it kicks ass!!

0 reply
xadx 10 wrote on February 4 2002, 12:00 am

great tab! great song! great band! well done this tab is done perfectly thanks i wanted to know that song for ages

0 reply
Leanne 10 wrote on March 3 2002, 12:00 am

v. gud tab 4 a v.cool song

guest
You may want to rate the tab now too:
select rating
Please do not post tabs as comments. Select "correction" instead!