Oops, an error
Loading. Please wait.

Good Riddance Time Of Your Life Tab

5,370 views 1 this week
5 commentsread comments
1 2 3 4 5
worth learning
x 7
add to favorites
launch autoscroll
font size
0
reset
how to read this tab
guitar tuner
Tab Pro tools
  • play this tab
  • loop segment
  • change instrument
  • show fretboard
  • metronome
×
Best way to learn
"Good Riddance Time Of Your Life"
Autoscroll
slow
fast
+/-
esc
set tempo
stop
Contributor

tuning is regular.  this is my first tab and i saw a bunch of wrong ones so i
decided to give it a shot.

verse1
 g            g           c            d
---------------------------------------------------|
-----3------------3------------3----------3--------|
-------0---0--------0---0-----0--0---2-2-2--0---0--| 4x
---0-----0------0-----0---2-2------2---0------0----|
-2------------2-----------3------------------------|
-3------------3------------------------------------|

prechorus1
 em          d           c           g
--------------------------------------------------|
-----0-----------3-----------3----------3---------|
---0---0---0-2-2---2---0-------0---0-------0---0--|
-2-------2---0-------0---2-2-----0-----0-----0----| 2x
-2-----------------------3-----------2------------|
-------------------------------------3------------|

chorus1
 em           g           em           g
---------------------------------------------------|
------0-----------3-----------0------------3-------|
----0---0---0-------0---0---0---0---0--------0---0-|
-2--------2-----0-----0---2-------2------0-----0---|
-2------------2-----------2------------2-----------|
--------------3------------------------3-----------|

 em          d
---------------------------|
-----0-----------3---------|
---0---0---0-2-2---2---0---|
-2-------2---0-------0-----|
-2-------------------------|
---------------------------|

verse2
 g                       c           d
-------------------------------------------------|
-----3-----------3-----------3-----------3-------|
-0-0---0-0-0-0-0---0-0-0-0-0---0-0-0-2-2---2-2-2-|
-0-0---0-0-0-0-0---0-0-0-2-2---2-2-2-0-0---0-0-0-| 4x
-2-2---2-2-2-2-2---2-2-2-3-3---3-3-3-0-0---0-0-0-|
-3-3---3-3-3-3-3---3-3-3-------------------------|

prechorus2
 em          d          c           g
-------------------------------------------------|
-----0-----------3----------3-----------3--------|
-0-0---0-0-0-2-2--2-2-2-0-0---0-0-0-0-0---0-0-0--| 2x
-2-2---2-2-2-0-0--0-0-0-2-2---2-2-2-0-0---0-0-0--|
-2-2---2-2-2-0-0--0-0-0-3-3---3-3-3-2-2---2-2-2--|
------------------------------------3-3---3-3-3--|

chorus2
 em          g
--------------------|
-----0-----------3--|
-0-0---0-0-0-0-0----| 2x
-2-2---2-0-0-0-0----|
-2-2---2-2-2-2-2----|
-------------3-3----|

e           d
---------------------|
-----0-----------3---|
-0-0---0-0-0-2-2-----|
-2-2---2-2-2-0-0-----|
-2-2---2-2-2-0-0-----|
---------------------|

 for the bridge srum the chords in this order:
g  g  c  d  g  g  c  d  g  g  c  d  g  g  c  d

e  d  c  g  e  d  c  g  e  g  e  g  e  d
                      (singing the chorus)

then go back to verse 1 and  play it one time then play a g to end it
comments
print report bad tab
5 comments total. Showing first comments.
0 reply
guitarplayer34 wrote on March 11 2002, 12:00 am

You got some of the chords wrong intead of C the chord is Csus2

0 reply
stud wrote on March 12 2002, 12:00 am

i know i got the c and d chord wrong
but thats because i just lazy.
the chords are g csus2 and dsus

0 reply
inkysquid wrote on February 10 2003, 12:00 am

Wicked tab.
the best out there
for good riddance

I want to post or [tab]
guest
You may want to rate the tab now too:
select rating
Please do not post tabs as comments. Select "correction" instead!