Oops, an error
Loading. Please wait.

Good Riddance Time Of Your Life Tab

753,033 views 402 this week
20 commentsread comments
1 2 3 4 5
excellent!
x 138
add to favorites
launch autoscroll
font size
0
reset
how to read this tab
guitar tuner
Autoscroll
slow
fast
+/-
esc
set tempo
stop
Help us to improve Ultimate-Guitar.com Take our survey!
×
Contributor
Chords Used:

     G   Em  Cadd9 D   C
e|---3---0---3-----2---0---|
B|---3---0---3-----3---1---|
G|---0---0---0-----2---0---|
D|---0---2---2-----0---2---|
A|---2---2---3-----x---3---|
E|---3---0---x-----x---x---|


[Intro]

e|--------------------|
B|--------------------|
G|-------0--------0---|
D|---------0--------0-|
A|--------------------|
E|---3-3------3-3-----|


[Verse 1] ( Play 4 times. Enter Vocals on 3rd)

     G             G             Cadd9         D
e|-----------------------------------------------------------|
B|-------3-------------3-------------3-------------3---------|
G|-----0---0---0-----0---0---0-----0---0---0-----2---2---2---|
D|-----------0-------------0-------------2-----0-------0-----|
A|-------------------------------3---------------------------|
E|---3-------------3-----------------------------------------|

1. ......
2. ......
3. Another turning point a fork stuck in the road
4. Time grabs you by the wrist directs you where to go


     Em            D             C             G
e|-----------------------------------------------------------|
B|-------0-------------3-------------1-------------3---------|
G|-----0---0---0-----2---2---2-----0---0---0-----0---0---0---|x2
D|-----------2-----0-------0-------------2-------------0-----|
A|---2---------------------------3---------------------------|
E|---------------------------------------------3-------------|

1. So make the best of this test and don't ask why
2. It's not a question but a lesson learned in time

Play once:

     Em            G             Em            G
e|-----------------------------------------------------------|
B|-------0-------------3-------------0-------------3---------|
G|-----0---0---0-----0---0---0-----0---0---0-----0---0---0---|
D|-----------2-------------0-------------2-------------0-----|
A|---2---------------------------2---------------------------|
E|-----------------3---------------------------3-------------|

1. It's something unpredictable but in the end it's right, ...

     Em            D
e|--------------------------------|
B|-------0-------------3----------|
G|-----0---0---0-----2---2--------|
D|-----------2-----0-------0------|
A|---2----------------------(0)---|
E|--------------------------------|

... I hope you had the time of your ...


G G Cadd9 D
... Life

G G Cadd9 D

G           G           Cadd9               D
So take the photographs and still frames in your mind.
G            G             Cadd9           D
Hang it on a shelf in good health and good time.
Em         D            C            G
Tattoos of memories and dead skin on trial.
Em               D            C             G
Through what its worth it was worth all the while
Em                  G             Em              G
It's something unpredictable, but in the end it's right
  Em               D            G
I hope you had the time of your life


[Bridge] (With Violin)

G  G  Cadd9  D (4x)
Em  D  C  G  (2x)

Em                  G             Em              G
It's something unpredictable, but in the end it's right
  Em               D            G
I hope you had the time of your life

G Cadd9 D
G G Cadd9 D


[Ending]

     Em            G             Em            G
e|-----------------------------------------------------------|
B|-------0-------------3-------------0-------------3---------|
G|-----0---0---0-----0---0---0-----0---0---0-----0---0---0---|
D|-----------2-------------0-------------2-------------0-----|
A|---2---------------------------2---------------------------|
E|-----------------3---------------------------3-------------|

 It's something unpredictable, but in the end it's right, ...

     Em            D
e|---------------------------------|
B|-------0-------------3-----------|
G|-----0---0---0-----2---2---------|
D|-----------2-----0-------0-------|
A|---2----------------------(0)----|
E|---------------------------------|

 I hope you had the time of your ...

     G             G             Cadd9         D
e|-----------------------------------------------------------|
B|-------3-------------3-------------3-------------3---------|
G|-----0---0---0-----0---0---0-----0---0---0-----2---2---2---|
D|-----------0-------------0-------------2-----0-------0-----|
A|-------------------------------3---------------------------|
E|---3-------------3-----------------------------------------|

 ... life.


Slow down till end...

     G             G             Cadd9         D             G
e|-----------------------------------------------------------3---|
B|-------3-------------3-------------3-------------3---------3---|
G|-----0---0---0-----0---0---0-----0---0---0-----2---2-2-0---0---|
D|-----------0-------------0-------------2-----0-------------0---|
A|-------------------------------3---------------------------2---|
E|---3-------------3-----------------------------------------3---|


************************************

| x    Dead note
| (n)  Ghost note

************************************
comments
print report bad tab
20 comments total. Showing first comments. show 1 bad comment
0 reply
jimlucas0 10 wrote on April 11 2008, 12:26 pm

no he's not. this is the real tab:

2x
E ---------------
B -------3----3--
G ----0----0-----
D ---------------
A ---------------
E -3-------------

E ---------------
B ------3-----3--
G ---0----0------
D ----------0----
A -3-------------
E --------------- etc.

Or something like that

+14 reply
plzb6ib9 27 wrote on April 21 2008, 01:08 pm

Very good tab THANKS, gonna be playing/singing it for a friend sometime.. hope she likes it :D:D

I want to post or [tab]
guest
You may want to rate the tab now too:
select rating
Please do not post tabs as comments. Select "correction" instead!