Oops, an error
Loading. Please wait.

Good Riddance Time Of Your Life Bass Tab

version 2
10,990 views 3 this week
1 commentread comment
1 2 3 4 5
1 last vote to show rating
add to favorites
launch autoscroll
font size
0
reset
guitar tuner
Autoscroll
slow
fast
+/-
esc
set tempo
stop
Help us to improve Ultimate-Guitar.com Take our survey!
×
first tab - bit basic but gives you an idea :P



G|------------------------------------| x4
D|--------------------------0-00-000--|
A|------------------3-33-333----------|
E|--3-33-3333-33-333------------------|

G|------------------------------------| x2
D|--2-2-2220-000-00-------------------|
A|------------------3-3-333-----------|
E|-------------------------3-33-2-22--|

G|------------------------------------------------------|
D|------------------------------------------------------|
A|------------------------------------------------------|
E|-0-0-0003-333-33----0-0-0003-333-33---0-0-0002-222-22-|
                                      (straight back to start)

G|------------------------------------| x2
D|--------------------------0-00-000--|
A|------------------3-33-333----------|
E|--3-33-3333-33-333------------------|

G|------------------------------------| x2
D|--2-2-2220-000-00-------------------|
A|------------------3-3-333-----------|
E|-------------------------3-33-2-22--|


G|------------------------------------|x2 -----------------|
D|------------------------------------|--------------------|
A|------------------------------------|--------------------|
E|-0-0-0003-333-33----0-0-0003-333-33-|----0-0-0002-222-22-|
                                            RIT.

===========================================================================
Suggest correction
Give kudos to tab author, rate the tab!
1 2 3 4 5
comments
print report bad tab
1 comment total.
0 reply
Seamus.Burkert 10 Aug 07, 2011 05:06 PM

this was way better than that other tab thanks man keep on tabin

guest
You may want to rate the tab now too:
select rating
Wanna post a correction for this tab? Suggest correction