Oops, an error
Loading. Please wait.

Good Riddance Time Of Your Life Tab

450,923 views 129 this week
59 commentsread comments
1 2 3 4 5
accurate
x 113
add to favorites
launch autoscroll
font size
0
reset
how to read this tab
guitar tuner
Autoscroll
slow
fast
+/-
esc
set tempo
stop
Help us to improve Ultimate-Guitar.com Take our survey!
×
[Intro]

   G     G     Cadd9 D
e|----3-----3-----3-----3------|
B|---3-3---3-3---3-3---3-3-----|
G|-----------------------------|
D|-----0-----0-------0---0-----|
A|-------------3---3-----------|
E|-3-----3---------------------| x2


[Verse]

   G     G     Cadd9 D
e|----3-----3-----3-----3------|
B|---3-3---3-3---3-3---3-3-----|
G|-----------------------------|
D|-----0-----0-------0---0-----|
A|-------------3---3-----------|
E|-3-----3---------------------| x2

G    
Another turning point
  Cadd9             D
A fork stuck in the road
G         
Time grabs you by the wrist
   Cadd9             D
Directs you where to go


[Pre-Chorus]

   Em    D     Cadd9 G    Em    D     Cadd9 G
e|----0-----3-----3----3-----0-----3-----3-----3---------|
B|---0-0---3-3---3-3--3-3---0-0---3-3---3-3---3-3--------|
G|-------------------------------------------------------|
D|-2---2-0---0------------------0---0--------------------|
A|-------------3---3------------------3---3--------------|
E|-------------------3--3-0---0-------------3---3--------|

Em          D            Cadd9
So make the best of this test
              G
And don't ask why
Em           D
It's not a question
       Cadd9            G
But a lesson learned in time


[Chorus]

   Em    G     Em    G    Em    D     
e|----0-----3-----0----3-----0-----3---------------------|
B|---0-0---3-3---0-0--3-3---0-0---3-3--------------------|
G|-------------------------------------------------------|
D|------------------------------0---0--------------------|
A|-------------------------------------------------------|
E|-0---0-3---3-0---0-3--3-0---0--------------------------|

      Em             G
It's something unpredicatble
    Em             G
But in the end is right
  Em                D            G
I hope you had the time of your life


[Instrumental]

G G Cadd9 D x2


[Verse]

G                    
So take the photographs
    Cadd9                D
And still frames in your mind
G
Hanging on a shelf
   Cadd9                D
In good health and good time


[Pre-Chorus]

Em          D
Tattoos of memories
     Cadd9         G
And dead skin on trial
Em             D
For what it's worth
        Cadd9         G
It was worth all the while


[Chorus]

      Em             G
It's something unpredicatble
    Em             G
But in the end is right
   Em              D            G
I hope you had the time of your life


[Instrumental]

G G Cadd9 D x4
Em D Cadd9 G x2


[Chorus]

     Em             G
It's something unpredicatble
    Em             G
But in the end is right
   Em              D            G
I hope you had the time of your life


[Instrumental]

G G Cadd9 D x2 
G
Suggest correction
What's this?
You can suggest a correction to this tab. Community and Mods will review your correction and vote to approve or reject it.
comments
print report bad tab
59 comments total. Showing first comments.
0 reply
BaRF 11 wrote on December 4 2001, 12:00 am

cool

0 reply
nickbrough 0 wrote on January 17 2002, 12:00 am

perfect tab well done

0 reply
deathgrade 843 wrote on January 23 2002, 12:00 am

awsome tab

guest
You may want to rate the tab now too:
select rating
Please do not post tabs as comments. Select "correction" instead!