Oops, an error
Loading. Please wait.

Good Riddance Time Of Your Life Tab

10,637 views 1 this week
12 commentsread comments
1 2 3 4 5
x 18
add to favorites
launch autoscroll
font size
0
reset
how to read this tab
guitar tuner
Autoscroll
slow
fast
+/-
esc
set tempo
stop
Help us to improve Ultimate-Guitar.com Take our survey!
×
Author
Green Day - Good Riddance (Time Of Your Life)

Chords:

G		3 2 0 0 3 0
C(add 9)        x 3 2 0 3 0
D               x x 0 2 3 2

Em              0 2 2 0 0 0
C               x 3 2 0 1 0


Intro:

	G
e-----------------------|
B-----------------------|
G------0---------0------|
D----0---------0--------|
A-----------------------|
E--3---------3----------|
		Fuck...

Main Riff
	G	G	C(...)	D
e-------------------------------------------------|
B-----3--------3--------3--------3----------------|
G----0-0-0----0-0-0----0-0-0----2-2-2-------------|   4 times
D-------0--------0--------2----0---0--------------|
A---------------------3---------------------------|
E---3--------3------------------------------------|


Second Riff

	Em	D	C	G
e-------------------------------------------------|
B----0--------3--------1--------3-----------------|
G---0-0-0----2-2-2----0-0-0----0-0-0--------------|   2 times
D------2----0---0--------2--------0---------------|
A--2-----------------3----------------------------|
E-----------------------------3-------------------|


Third Riff

	Em	G	Em	G	Em	D
e-------------------------------------------------------|
B----0--------3--------0--------3--------0--------3-----|
G---0-0-0----0-0-0----0-0-0----0-0-0----0-0-0----2-2-2--|
D------2--------0--------2--------0--------2--------0---|
A--2-----------------2-----------------2--------2-------|
E-----------3-----------------3-------------------------|

				G	D	C	D
				G	D	C	D


So take the photographs...	G	G	C	D
				G	G	C	D


Tatoos of  memories...		Em	D	C	G
				Em	D	C	G


It´s something unpredictable... Em	G	Em	G
                                Em	D	G

		G	D	C       D      6 times
		G	D	C	D

It´s something unpredictable... Em	G	Em	G
                                Em	D	G


		G	D	C	D
		G	D	C	D


It´s something unpredictable...
     Em	      G	      Em	G	 Em	  D
e-------------------------------------------------------|
B----0--------3--------0--------3--------0--------3-----|
G---0-0-0----0-0-0----0-0-0----0-0-0----0-0-0----2-2-2--|
D------2--------0--------2--------0--------2--------0---|
A--2-----------------2-----------------2--------2-------|
E-----------3-----------------3-------------------------|


Riff one twice but on second:
      G	       G	C(...)	     D
e------------------------------------------------0-|
B-----3--------3--------3----------3-------------3-|
G----0-0-0----0-0-0----0-0-0-----2---2------2----0-|
D-------0--------0--------2----0-------0-0-------0-|
A---------------------3--------------------------2-|
E---3--------3-----------------------------------3-|

Questions, comments: girl_yes@hotmail.com
Suggest correction
comments
print report bad tab
12 comments total. Showing first comments.
0 reply
robbertime 0 Feb 21, 2002 12:00 AM

This is a great tab! I cant understand how geoff´s version of this tab is in higher rank than yours. Your tab is almost 100% correct but geoff´s isnt. that tab is totally wrong!!

0 reply
robbertime 0 Feb 21, 2002 12:00 AM

This is a great tab! I cant understand how geoff´s version of this tab is in higher rank than yours. Your tab is almost 100% correct but geoff´s isnt. that tab is totally wrong!! good job!!

0 reply
killhdestroy 10 Mar 22, 2002 12:00 AM

nice tab, i think the intro is of a bit, i think it goes E3E3G0D0... THANKS for the TAB!!

guest
You may want to rate the tab now too:
select rating
Wanna post a correction for this tab? Suggest correction