Oops, an error
Loading. Please wait.

Governator bass

3,213 views 3 this week
4 commentsread comments
1 2 3 4 5
x 9
add to favorites
×
Save as Personal and add changes to this tab that will be seen only by you. Learn more ›
×
You can save this tab as Personal to edit and correct it or add notes. All changes will be seen only by you. Learn more »
launch autoscroll
font size
0
reset
guitar tuner
edit
Autoscroll
slow
fast
+/-
esc
set tempo
stop
Author
Artist: Green Day
Title: Governator
Album: American Idiot (B-Side)

This song is pretty easy as long as you can move your finger quickly.

Verse
G|---------------------------------------------|
D|---------------------------------------------|
A|-2/77777777-55555555-2222222222222222--------|
E|---------------------------------------------|


G|---------------------------------------------|
D|---------------------------------------------|
A|-77777777-00000000-5555555555555-4-5-6-------|
E|---------------------------------------------|


G|---------------------------------------------|
D|---------------------------------------------|
A|-77777777-55555555-2222222222222222----------|
E|---------------------------------------------|


G|---------------------------------------------|
D|--------------------------------2--2---------|
A|-77777777-00000000-5555555555555-------------|
E|---------------------------------------------|

Chorus
G|---------------------------------------------|
D|--------------2--2-------------2--2----------|
A|-2222222222222----2222222222222--------------|
E|---------------------------------------------|


G|---------------------------------------------|
D|--------------2--2---------------------------|
A|-2222222222222----2222222222222222-----------|
E|---------------------------------------------|


G|---------------------------------------------|
D|---------------------------------------------|
A|-77-55-00-55-77-55-00-55---------------------| (2x)
E|---------------------------------------------|

Riff
G|---------------------------------------------|
D|---------------------------------------------|
A|-7777777777777777-5555555555555555-----------| 
E|---------------------------------------------|


G|---------------------------------------------|
D|---------------------------------------------|
A|-2222222222222222-000000000000000-2/---------| 
E|---------------------------------------------|


G|---------------------------------------------|
D|---------------------------------------------|
A|-7777777777777777-5555555555555555-----------| 
E|---------------------------------------------|


G|---------------------------------------------|
D|---------------------------------------------|
A|-9999999999999999-5555555555555-4-5-6--------|
E|---------------------------------------------|

Order:
Verse
Chorus
Verse
Chorus
Chorus
Riff
Line 3 of chorus (8x)
Suggest correction
Creating personal tab
Creating personal tab
You can edit any tab online and save it as your Personal.

You can edit, replace or remove any tab part or add personal notes – all changes will be seen only by you.

Personal tabs can be accessed anytime from any device, even offline.
Learn more »
comments
print report bad tab
4 comments total. Showing first comments.
0 reply
Orange_shoeS 10 Jun 09, 2006 08:14 PM

G|---------------------------------------------|
D|---------------------------------------------|
A|-77-55-00-55-77-55-00-55---------------------| (2x)
E|---------------------------------------------|


I think thats the root of what the guitar is playing. The bass does something more complicated. Besides that its really good. Two thumbs up!

0 reply
Bassplayer1234 10 Apr 29, 2007 02:36 PM

Dude, That was like perfect.

+1 reply
pkgk24 80 Aug 31, 2013 08:49 AM

I think its something like this..
G|---------------------------------------------|
D|---79---57--------57---79---57--------57-----|
A|-77---55-----57-55---77---55-----57-55-------| (2x)
E|-----------55------------------55------------|

guest
You may want to rate the tab now too:
select rating
Wanna post a correction for this tab? Suggest correction