Oops, an error
Loading. Please wait.
We have an official Green Day tab made by UG professional guitarists. Check out the tab »
×

Green Day tab

version 5
version 5

Whole song

Interactive

7 views 1 this week
no commentswrite comment
1 2 3 4 5
3 more votes to show rating
add to favorites
×
Save as Personal and add changes to this tab that will be seen only by you. Learn more ›
×
You can save this tab as Personal to edit and correct it or add notes. All changes will be seen only by you. Learn more »
launch autoscroll
font size
0
reset
how to read this tab
guitar tuner
edit
Autoscroll
slow
fast
+/-
esc
set tempo
stop
About this tab version
There isn't that many tabs out there that include notes on the 1st through 3rd strings, and some don't implement a solid solo part. I also did a tab on this because it's one of my favorite Green Day songs. Was this info helpful? Yes No
This is one of my favorite Green Day songs (not just because it's about smoking weed) and I noticed that there
isn't many tabs on this. So I made a complete tab of it, with the small notes here and there added too. This
is an obvious advanced song because of all the different notes going on. The solo is quite easy actually, but
someone can find difficulty implementing the notes on the 1,2,&3; strings so...

[Intro]
e|--------------------------------0-----------------------0------------------|
B|---------------------------------0-----------------------0------2----------|
G|-4---7-4---------------------------44444444-----------------444424444444---|
D|-4-2-7-4---------------6-6-66------44444444-----6-6-66-22---444424444444---|
A|-2-2-5-2---------------6-6-66-22---22222222-----6-6-66-22---2222-2222222---|
E|---0------(bass solo)--4-4-44-00------------(x2)4-4-44-00------------------|

[Verse]
e|------------------------------------------------0---0----------------------|
B|--------------------------------------2222222----0-0-----------------------|
G|-9-9-9-9-7-7-7-7-6-6-66-4-4444444-----2222222-----2------------------------|
D|-9-9-9-9-7-7-7-7-6-6-66-4-4444444-444422222222-2---------------------------|
A|-7-7-7-7-5-5-5-5-4-4-44-2-2222222-4444-------2-2---------------------------|
E|----------------------------------2222-------0-0-----(x2)------------------|

[Chorus]
e|---------0-----------------0-----------------------------------------------|
B|---------0-----------------0----2------------------------------------------|
G|----------44444444----------444424444444-----------------------------------|
D|-6666-2-2-44444444-6666-2-2-444424444444-----------------------------------|
A|-6666-2-2-22222222-6666-2-2-2222-2222222-----------------------------------|
E|-4444-0-0----------4444-0-0--------------(x2)------------------------------|

[Solo]
e|------------------------------------------0----0---------------------------|
B|--------------------------------2222222----0--0----------------------------|
G|--------------------------------2222222------2-----------------------------|
D|-9-9999-11-9-7-6-7b-4-2-4---444422222222-2---------------------------------|
A|----------------------------4444-------2-2---------------------------------|
E|----------------------------2222-------0-0-------(x2)----------------------|

[Outro]
e|----------------------------------------------0---0---0--------------------|
B|----------------------------2-(let it ring)--0-0-0-0-0-0---0-(let it fade)-|
G|-9-9-9-9-7-7-7-7-6--6-6-6-4-2---------------2---2---2----2-----------------|
D|-9-9-9-9-7-7-7-7-6--6-6-6-4-2----------------------------------------------|
A|-7-7-7-7-5-5-5-5-4--4-4-4-2------------------------------------------------|
E|---------------------------------------------------------------------------|
If you're having trouble listen to the song to help comprehend the tab more. I know those 1-3 string notes
can be weird or intimidating. If you have questions text (502)530-9271

************************************

| b  Bend

************************************

            
            
Suggest correction
Creating personal tab
Creating personal tab
You can edit any tab online and save it as your Personal.

You can edit, replace or remove any tab part or add personal notes – all changes will be seen only by you.

Personal tabs can be accessed anytime from any device, even offline.
Learn more »
Give kudos to tab author, rate the tab!
1 2 3 4 5
comments
print report bad tab
guest
You may want to rate the tab now too:
select rating
Wanna post a correction for this tab? Suggest correction