Oops, an error
Loading. Please wait.

Ha Ha Youre Dead Tab

version 5
version 5

Whole song

Interactive

3,979 views 9 this week
no commentswrite comment
1 2 3 4 5
excellent!
x 11
add to favorites
launch autoscroll
font size
0
reset
how to read this tab
guitar tuner
Tab Pro tools
  • play this tab
  • loop segment
  • change instrument
  • show fretboard
  • metronome
×
Best way to learn
"Ha Ha Youre Dead"
Autoscroll
slow
fast
+/-
esc
set tempo
stop
artist:green day
song:ha ha you're dead
album:shenanigans
tabbed by:jorge palacios

tuning:eadgbe
intro
e -----------------------------------------------------------------------|
b -----------------------------------------------------------------------|
g -55555555------------------------55555555----------------------------5-|
d -55555555-55555555-7777777777777-55555555-55555555-7777777777777-777-5-|
a -33333333-55555555-7777777777777-33333333-55555555-7777777777777-777-3-|
e ----------33333333-5555555555555----------33333333-5555555555555-555---|
pm ........ ........ ............. ........ ........ .............

verse
e -----------------------------------------------------------------|
b -----------------------------------------------------------------|
g -55555555------------------------55555555------------------------|
d -55555555-55555555-7777777777777-55555555-55555555-7777777777777-|
a -33333333-55555555-7777777777777-33333333-55555555-7777777777777-|
e ----------33333333-5555555555555----------33333333-5555555555555-|
pm ........ ........ ............. ........ ........ .............

e -----------------------------------------------------------------|
b -----------------------------------------------------------------|
g -55555555------------------------55555555------------------------|
d -55555555-55555555-7777777777777-55555555-55555555-7777777777777-|
a -33333333-55555555-7777777777777-33333333-55555555-7777777777777-|
e ----------33333333-5555555555555----------33333333-5555555555555-|
pm ........ ........ .......  . .  ........ ........ .........

pre-chorus
e -----------------------------------------------------------|
b -----------------------------------------------------------|
g -55------------55------------55------------55--------------|
d -55-3-55555555-55-3-55555555-55-3-55555555-55-3-5555555555-|
a -33-3-55555555-33-3-55555555-33-3-55555555-33-3-5555555555-|
e ----1-33333333----1-33333333----1-33333333----1-3333333333-|

verse
e -----------------------------------------------------------------|
b -----------------------------------------------------------------|
g -55555555------------------------55555555------------------------|
d -55555555-55555555-7777777777777-55555555-55555555-7777777777777-|
a -33333333-55555555-7777777777777-33333333-55555555-7777777777777-|
e ----------33333333-5555555555555----------33333333-5555555555555-|
pm ........ ........ ............. ........ ........ .............

e -----------------------------------------------------------------|
b -----------------------------------------------------------------|
g -55555555------------------------55555555------------------------|
d -55555555-55555555-7777777777777-55555555-55555555-7777777777777-|
a -33333333-55555555-7777777777777-33333333-55555555-7777777777777-|
e ----------33333333-5555555555555----------33333333-5555555555555-|
pm ........ ........ ............. ........ ........ .............

pre-chorus
e -----------------------------------------------------------|
b -----------------------------------------------------------|
g -55------------55------------55------------55--------------|
d -55-3-55555555-55-3-55555555-55-3-55555555-55-3-5555555555-|
a -33-3-55555555-33-3-55555555-33-3-55555555-33-3-5555555555-|
e ----1-33333333----1-33333333----1-33333333----1-3333333333-|

chorus
e -----------------------------------------------------------|
b -----------------------------------------------------------|
g -55555555----------55555555--------------------------------|
d -55555555-55555555-55555555-55555555-77777777-7-5-33333333-|
a -33333333-55555555-33333333-55555555-77777777-7-5-33333333-|
e ----------33333333----------33333333-55555555-5-3-11111111-|

e ----------------------------|
b ----------------------------|
g -55555555----------55555555-|
d -55555555-55555555-55555555-|
a -33333333-55555555-33333333-|
e ----------33333333----------|

solo
e -----------------------------------------------------------------|
b -5---5---5---5---6---6---6---6---5---5---5---5---8---8---8---8---|
g ---5---5---5---5---5---5---5---5---5---5---5---5---7---7---7---7-|
d -----------------------------------------------------------------|
a -----------------------------------------------------------------|
e -----------------------------------------------------------------|

e ------------------------------------------------------------|
b -5---5---5---5---6---6---6---6---5---5---3---3--------------|
g ---5---5---5---5---5---5---5---5---5---5---4---4-5555555555-|
d -------------------------------------------------5555555555-|
a ------------------------------------------------------------|
e ------------------------------------------------------------|

chorus
e -----------------------------------------------------------|
b -----------------------------------------------------------|
g -55555555----------55555555--------------------------------|
d -55555555-55555555-55555555-55555555-77777777-7-5-33333333-|
a -33333333-55555555-33333333-55555555-77777777-7-5-33333333-|
e ----------33333333----------33333333-55555555-5-3-11111111-|

e ----------------------------|
b ----------------------------|
g -55555555----------55555555-|
d -55555555-55555555-55555555-|  x2 (second time start solo 2nd. guitar)
a -33333333-55555555-33333333-|
e ----------33333333----------|

e -----------------------------------------------------|
b -----------------------------------------------------|
g -55555555----------------------------55555555------5-|
d -55555555-55555555-77777777-33333333-55555555-55-5-5-|
a -33333333-55555555-77777777-33333333-33333333-55-5-3-|
e ----------33333333-55555555-11111111----------33-3---|
pm                                              .. .

i hope you enjoy plying the song its very easy any question, commentary, etc
email me at jpalaciospadilla@yahoo.com
comments
print report bad tab
I want to post or [tab]
guest
You may want to rate the tab now too:
select rating
Please do not post tabs as comments. Select "correction" instead!