Oops, an error
Loading. Please wait.

Having A Blast Bass Tab

version 2
version 2

Whole song

Interactive

3,119 views 15 this week
1 commentread comment
1 2 3 4 5
accurate
x 3
add to favorites
launch autoscroll
font size
0
reset
guitar tuner
Autoscroll
slow
fast
+/-
esc
set tempo
stop
Help us to improve Ultimate-Guitar.com Take our survey!
×
----------------------------------------------------------------------------
                         Having A Blast-Green Day
----------------------------------------------------------------------------
Album:Dookie
Tuning:half step down(Gb Db Ab Eb)

Tabbed by:WARNINGnimrod12
Email:WARNINGnimrod182@aim.com




  INTRO

   Gb|--------------------------------------------------|
   Db|--5-5/4-4/2-2-4-2---------------------------------|
   Ab|--------------------------------------------2-----|
   Eb|-------------------5--5--5-5-5-3--3-3-3-3-3---3---|


   Gb|----------------------------------|
   Db|----------------------------------|
   Ab|----------------------------2-----|
   Eb|---5--5--5-5-5-3--3-3-3-3-3---3---|


  VERSE x2

   Gb|---------------------------------------------------------------------|
   Db|---------------------------------------------------------------------|
   Ab|---------------------------------------------------------------------|
   Eb|---5-5-5-5-5-5-5-5-5-5-5-5-5-5-5-5-5-5-5-5-5-5-5-5-5-5-5-5-5-5-5-5---|


   Gb|--------------------------------------------------------------|
   Db|--------------------4-----------------------------------------|
   Ab|--------------------------------------------------------------|
   Eb|---2--2--2-2-2-2--2---2-2-2-2-2-3--3--3-3-3-0--0-0--0-0-0-0---|


  CHORUS

   Gb|--------------------------------------------------------------|
   Db|--------------------------------------------------------------|
   Ab|---5--5--5-5-5-5--5-5--5-5-5-5--------------------------------|--|
   Eb|-------------------------------5--5--5-5-5-5--5--5--5-5-5-5---|  |
                                                                       |
                                                                       | 
   Gb|--------------------4-----------------------------------------|  |x2
   Db|--------------------------------------------------------------|  |
   Ab|---2--2--2-2-2-2--2---2-2-2-2-2-------------------------------|--|
   Eb|--------------------------------3--3--3-3-3-3--3-3--3-3-3-3---|


   Gb|---------------------------------------------------------------|
   Db|--------------------------5-5p4------------------------5-5p4---|
   Ab|---------------------------------------------------------------|
   Eb|---5--5--5-5-5-3--3-3-3-3-------5--5--5-5-5-3--3-3-3-3---------|


   Gb|---------------------------------------------------------------|
   Db|--------------------------5-5p4--------------------------------|
   Ab|---------------------------------------------------------------|
   Eb|---5--5--5-5-5-3--3-3-3-3-------5--5--5-5-5-3--3-3-3-3-3-3-3---|


  VERSE 2 x2

  CHORUS 2 

  BRIDGE

   Gb|-----------------------------------------------------|
   Db|-----------------------------------------------------|
   Ab|---------------------------5-------------------------|
   Eb|---5-------2--2-2--2-2-2-2---------0--0-0--0-0-0-0---|


   Gb|-------------------------------------------------------|
   Db|-------------------------------------------------------|
   Ab|---------------------------5--5------------------------|
   Eb|---5-------2--2-2--2-2-2-2------5--5-0--0-0--0-0-0-0---|


   Gb|-------------------------------------------------------------|
   Db|-------------------------------------------------------------|
   Ab|---------------5--5-5--5-5-5-5-------------------------------|
   Eb|---2--2--2-2-2-----------------5--5--5-5-5-5--5-5--5-5-5-5---|


   Gb|----------------------------------------------------|
   Db|----------------------------------------------------|
   Ab|----------------------------------------------------|
   Eb|---2--2--2-2-2-3--3-3--3-3-3-3-5---5-5---3-5--5-5---|


   Gb|-------------------------------------------------------------|
   Db|-------------------------------------------------------------|
   Ab|---------------5--5-5--5-5-5-5-------------------------------|
   Eb|---2--2--2-2-2-----------------5--5--5-5-5-5--5-5--5-5-5-5---|


   Gb|---------------------------------|
   Db|---------------------------------|
   Ab|---------------------------------|
   Eb|---2--2--2-2-2-3--3-3--3-3-3-3---|


  OUTRO

   Gb|---------------------------------------------------------------|
   Db|--------------------------5-5p4------------------------5-5p4---|
   Ab|---------------------------------------------------------------|
   Eb|---5--5--5-5-5-3--3-3-3-3-------5--5--5-5-5-3--3-3-3-3---------|


   Gb|---------------------------------------------------------------|
   Db|--------------------------5-5p4--------------------------------|
   Ab|---------------------------------------------------------------|
   Eb|---5--5--5-5-5-3--3-3-3-3-------5--5--5-5-5-3~-----------------|



   ORDER:

   INTRO
   VERSE x2
   CHORUS
   VERSE 2 x2
   CHORUS 2
   BRIDGE
   OUTRO
Suggest correction
Give kudos to tab author, rate the tab!
1 2 3 4 5
comments
print report bad tab
1 comment total.
0 reply
Insomniac_123 261 wrote on September 3 2008, 09:19 am

Cool tab. I can play this on my bass now fully. Good job.

guest
You may want to rate the tab now too:
select rating
Wanna post a correction for this tab? Suggest correction