Oops, an error
Loading. Please wait.

Hichin A Ride tab

version 1
version 1

Whole song

70 views 1 this week
no commentswrite comment
1 2 3 4 5
3 more votes to show rating
add to favorites
×
Save as Personal and add changes to this tab that will be seen only by you. Learn more ›
×
You can save this tab as Personal to edit and correct it or add notes. All changes will be seen only by you. Learn more »
launch autoscroll
font size
0
reset
how to read this tab
guitar tuner
edit
Autoscroll
slow
fast
+/-
esc
set tempo
stop
HITCHIN A RIDE

(Intro)
e|--------------------------------------------|
B|---------------------8----------------------|
G|---------8--9--11-------11--9---8-9---------|
D|--9--10-------------------------------10----|
A|--------------------------------------------|
E|--------------------------------------------|

e|--------------------------------------------------------|
B|--------------------------------------------------------|
G|--------------------------------------------------------|
D|--9-9--7-7--6-6--5-5-5-5------9-9--7-7--6-6--5-5-5-5----|
A|--9-9--7-7--6-6--5-5-5-5------9-9--7-7--6-6--5-5-5-5----|
E|--7-7--5-5--4-4--3-3-3-3------7-7--5-5--4-4--3-3-3-3----|

(Verse)
e|--------------------------------------------------------|
B|--------------------------------------------------------|
G|--------------------------------------------------------|
D|--9-9--7-7--6-6--5-5-5-5------9-9--7-7--6-6--5-5-5-5----|
A|--9-9--7-7--6-6--5-5-5-5------9-9--7-7--6-6--5-5-5-5----|
E|--7-7--5-5--4-4--3-3-3-3------7-7--5-5--4-4--3-3-3-3----|
   HEY MR WHERE YOU HEADED     ARE YOU IN A HURRY

e|--------------------------------------------------------|
B|--------------------------------------------------------|
G|--------------------------------------------------------|
D|--9-9--7-7--6-6--5-5-5-5------9-9--7-7--6-6--5-5-5-5----|
A|--9-9--7-7--6-6--5-5-5-5------9-9--7-7--6-6--5-5-5-5----|
E|--7-7--5-5--4-4--3-3-3-3------7-7--5-5--4-4--3-3-3-3----|
I NEED A LIFE TO HAPPY HOUR     I SAY OH_______NO

e|--------------------------------------------------------|
B|--------------------------------------------------------|
G|--------------------------------------------------------|
D|--9-9--7-7--6-6--5-5-5-5------9-9--7-7--6-6--5-5-5-5----|
A|--9-9--7-7--6-6--5-5-5-5------9-9--7-7--6-6--5-5-5-5----|
E|--7-7--5-5--4-4--3-3-3-3------7-7--5-5--4-4--3-3-3-3----|
DO YOU BREAK FOR DISTILLED     I NEED A BREAK AS WELL
SPIRITS

e|-------------------------------------------------------------|
B|-------------------------------------------------------------|
G|-------------------------------------------------------------|
D|--9-9--7-7--6-6--5-5-5-5-----------9-9--7-7--6-6--5-5-5-5----|
A|--9-9--7-7--6-6--5-5-5-5-----------9-9--7-7--6-6--5-5-5-5----|
E|--7-7--5-5--4-4--3-3-3-3-----------7-7--5-5--4-4--3-3-3-3----|
 THE WELL THAT INEBRIATES THE GUILT

(Interlude)
e|--------------------------------------------------------|
B|--------------------------------------------------------|
G|--------------------------------------------------------|
D|--9-9--7-7--6-6--5-5-5-5------9-9--7-7--6-6--5-5-5-5----|
A|--9-9--7-7--6-6--5-5-5-5------9-9--7-7--6-6--5-5-5-5----|
E|--7-7--5-5--4-4--3-3-3-3------7-7--5-5--4-4--3-3-3-3----|

e|--------------------------------------------------------|
B|--------------------------------------------------------|
G|--------------------------------------------------------|
D|--9-9--7-7--6-6--5-5-5-5------9-9--7-7--6-6-------------|
A|--9-9--7-7--6-6--5-5-5-5------9-9--7-7--6-6-------------|
E|--7-7--5-5--4-4--3-3-3-3------7-7--5-5--4-4-------------|

(Verse)
e|--------------------------------------------------------|
B|--------------------------------------------------------|
G|--------------------------------------------------------|
D|--9-9--7-7--6-6--5-5-5-5------9-9--7-7--6-6--5-5-5-5----|
A|--9-9--7-7--6-6--5-5-5-5------9-9--7-7--6-6--5-5-5-5----|
E|--7-7--5-5--4-4--3-3-3-3------7-7--5-5--4-4--3-3-3-3----|
COLD TURKEYS GETTING STALE     TONIGHT I’M EATING CROW

e|--------------------------------------------------------|
B|--------------------------------------------------------|
G|--------------------------------------------------------|
D|--9-9--7-7--6-6--5-5-5-5------9-9--7-7--6-6--5-5-5-5----|
A|--9-9--7-7--6-6--5-5-5-5------9-9--7-7--6-6--5-5-5-5----|
E|--7-7--5-5--4-4--3-3-3-3------7-7--5-5--4-4--3-3-3-3----|
FERMENTED SALMONELLA            POISON OAK ________NO

e|--------------------------------------------------------|
B|--------------------------------------------------------|
G|--------------------------------------------------------|
D|--9-9--7-7--6-6--5-5-5-5------9-9--7-7--6-6--5-5-5-5----|
A|--9-9--7-7--6-6--5-5-5-5------9-9--7-7--6-6--5-5-5-5----|
E|--7-7--5-5--4-4--3-3-3-3------7-7--5-5--4-4--3-3-3-3----|
THERE’S A DROUGHT AT THE       AND I’M DEHYDRATED 
FOUNTAIN OF YOUTH

e|--------------------------------------------------------|
B|--------------------------------------------------------|
G|--------------------------------------------------------|
D|--9-9--7-7--6-6--5-5-5-5------9-9--7-7--6-6--5-5-5-5----|
A|--9-9--7-7--6-6--5-5-5-5------9-9--7-7--6-6--5-5-5-5----|
E|--7-7--5-5--4-4--3-3-3-3------7-7--5-5--4-4--3-3-3-3----|
MY TONGUE IS SWELLING UP

(Interlude)
e|--------------------------------------------------------|
B|--------------------------------------------------------|
G|--------------------------------------------------------|
D|--9-9--7-7--6-6--5-5-5-5------9-9--7-7--6-6--5-5-5-5----|
A|--9-9--7-7--6-6--5-5-5-5------9-9--7-7--6-6--5-5-5-5----|
E|--7-7--5-5--4-4--3-3-3-3------7-7--5-5--4-4--3-3-3-3----|

e|------------------------------------------------------------------|
B|------------------------------------------------------------------|
G|------------------------------------------------------------------|
D|--9-9--7-7--6-6--5-5-5-5----9-9-9-9--7-7-7-7--6-6-6-6--5-5-5-5----|
A|--9-9--7-7--6-6--5-5-5-5----9-9-9-9--7-7-7-7--6-6-6-6--5-5-5-5----|
E|--7-7--5-5--4-4--3-3-3-3----7-7-7-7--5-5-5-5--4-4-4-4--3-3-3-3----|

(Chorus)
e|----------------------------------------------------------------------------|
B|----------------------------------------------------------------------------|
G|----------------------------------------------------------------------------|
D|--2-2-2-2--2-2-2-2--4-4-4-4--4-4-4-4---9-9-9-9--7-7-7-7--6-6-6-6--5-5-5-5---|
A|--2-2-2-2--2-2-2-2--4-4-4-4--4-4-4-4---9-9-9-9--7-7-7-7--6-6-6-6--5-5-5-5---|
E|--0-0-0-0--0-0-0-0--2-2-2-2--2-2-2-2---7-7-7-7--5-5-5-5--4-4-4-4--3-3-3-3---|
   TROUBLED TIMES                       YOU KNOW I CANNOT LIE

e|----------------------------------|
B|----------------------------------|
G|----------------------------------|
D|--2-2-2-2--2-2-2-2--2-2-2-2--4----|
A|--2-2-2-2--2-2-2-2--2-2-2-2--4----|
E|--0-0-0-0--0-0-0-0--0-0-0-0--2----|
I’M OFF THE WAGON AND I’M HITCHIN A RIDE

(Interlude)
e|--------------------------------------------------------|
B|--------------------------------------------------------|
G|--------------------------------------------------------|
D|--9-9--7-7--6-6--5-5-5-5------9-9--7-7--6-6--5-5-5-5----|
A|--9-9--7-7--6-6--5-5-5-5------9-9--7-7--6-6--5-5-5-5----|
E|--7-7--5-5--4-4--3-3-3-3------7-7--5-5--4-4--3-3-3-3----|

(Verse)
e|--------------------------------------------------------|
B|--------------------------------------------------------|
G|--------------------------------------------------------|
D|--9-9--7-7--6-6--5-5-5-5------9-9--7-7--6-6--5-5-5-5----|
A|--9-9--7-7--6-6--5-5-5-5------9-9--7-7--6-6--5-5-5-5----|
E|--7-7--5-5--4-4--3-3-3-3------7-7--5-5--4-4--3-3-3-3----|
THERE’S A DROUGHT AT THE       AND I’M DEHYDRATED 
FOUNTAIN OF YOUTH

e|------------------------------|
B|------------------------------|
G|------------------------------|
D|--9-9--7-7--6-6--5-5-5-5------|
A|--9-9--7-7--6-6--5-5-5-5------|
E|--7-7--5-5--4-4--3-3-3-3------|
MY TONGUE IS SWELLING UP
I SAID

(Solo)
E|-------------------------|-------------------------|
B|-12-12-12-12-12-12-12-12-|-15-15-15-15-15-15-15-15-|
G|-------------------------|-------------------------|
D|--9--9--9--9--9--9--9--9-|-12-12-12-12-12-12-12-12-|
A|-------------------------|-------------------------|
E|-------------------------|-------------------------|

E|-------------------------|------------------------------|
B|-12-12-12-12-12-12-12-12-|--8-8-8-8-8-8--7-7-7-7-7-7----|
G|-------------------------|------------------------------|
D|--9--9--9--9--9--9--9--9-|--5-5-5-5-5-5--4-4-4-4-4-4----|
A|-------------------------|------------------------------|
E|-------------------------|------------------------------|

E|-------------------------|-------------------------|
B|-12-12-12-12-12-12-12-12-|-15-15-15-15-15-15-15-15-|
G|-------------------------|-------------------------|
D|--9--9--9--9--9--9--9--9-|-12-12-12-12-12-12-12-12-|
A|-------------------------|-------------------------|
E|-------------------------|-------------------------|

E|-------------------------|-17-17-17-17-17-17-17-17-|
B|-17-17-17-17-17-17-17-17-|-17-17-17-17-17-17-17-17-|
G|-------------------------|-------------------------|
D|-14-14-14-14-14-14-14-14-|-14-14-14-14-14-14-14-14-|
A|-------------------------|-------------------------|
E|-------------------------|-------------------------|

E|---------------------|---------------------|---------------------|
B|-17---15---12---15---|-17---15---12---15---|-17---15---12--10----|
G|---------------------|---------------------|---------------------|
D|-14---12----9---12---|-14---12----9---12---|-14---12----9---7----|
A|---------------------|---------------------|---------------------|
E|---------------------|---------------------|---------------------|
                                                    
E|---------------------|---------------------|---------------------|
B|-17---15---12---10---|-12---15---17---15---|-12---15---17---15---|
G|---------------------|---------------------|---------------------|
D|-14---12----9----7---|--9---12---14---12---|--9---12---14---12---|
A|---------------------|---------------------|---------------------|
E|---------------------|---------------------|---------------------|

E|-------------------------|-17-17-17-17-17-17-17-17-|
B|-17-17-17-17-17-17-17-17-|-17-17-17-17-17-17-17-17-|
G|-------------------------|-------------------------|
D|-14-14-14-14-14-14-14-14-|-14-14-14-14-14-14-14-14-|
A|-------------------------|-------------------------|
E|-------------------------|-------------------------|

(Chorus)
e|----------------------------------------------------------------------------|
B|----------------------------------------------------------------------------|
G|----------------------------------------------------------------------------|
D|--2-2-2-2--2-2-2-2--4-4-4-4--4-4-4-4---9-9-9-9--7-7-7-7--6-6-6-6--5-5-5-5---|
A|--2-2-2-2--2-2-2-2--4-4-4-4--4-4-4-4---9-9-9-9--7-7-7-7--6-6-6-6--5-5-5-5---|
E|--0-0-0-0--0-0-0-0--2-2-2-2--2-2-2-2---7-7-7-7--5-5-5-5--4-4-4-4--3-3-3-3---|
   TROUBLED TIMES                       YOU KNOW I CANNOT LIE
e|----------------------------------|
B|----------------------------------|
G|----------------------------------|
D|--2-2-2-2--2-2-2-2--2-2-2-2--4----|
A|--2-2-2-2--2-2-2-2--2-2-2-2--4----|
E|--0-0-0-0--0-0-0-0--0-0-0-0--2----|
I’M OFF THE WAGON AND I’M HITCHING A RIDE

(Outro)
e|------------------------------------------------------------------------------|
B|------------------------------------------------------------------------------|
G|------------------------------------------------------------------------------|
D|--9-9-9-9--7-7-7-7--6-6-6-6--5-5-5-5----9-9-9-9--7-7-7-7--6-6-6-6--5-5-5-5----|
A|--9-9-9-9--7-7-7-7--6-6-6-6--5-5-5-5----9-9-9-9--7-7-7-7--6-6-6-6--5-5-5-5----|
E|--7-7-7-7--5-5-5-5--4-4-4-4--3-3-3-3----7-7-7-7--5-5-5-5--4-4-4-4--3-3-3-3----|
                       HITCHIN A RIDE                        HITCHIN A RIDE 

e|------------------------------------------------------------------------------|
B|------------------------------------------------------------------------------|
G|------------------------------------------------------------------------------|
D|--9-9-9-9--7-7-7-7--6-6-6-6--5-5-5-5----9-9-9-9--7-7-7-7--6-6-6-6--5-5-5-5----|
A|--9-9-9-9--7-7-7-7--6-6-6-6--5-5-5-5----9-9-9-9--7-7-7-7--6-6-6-6--5-5-5-5----|
E|--7-7-7-7--5-5-5-5--4-4-4-4--3-3-3-3----7-7-7-7--5-5-5-5--4-4-4-4--3-3-3-3----|
                       HITCHIN A RIDE                        HITCHIN A RIDE 

e|------------------------------------------------------------------------------|
B|------------------------------------------------------------------------------|
G|------------------------------------------------------------------------------|
D|--9-9-9-9--7-7-7-7--6-6-6-6--5-5-5-5----9-9-9-9--7-7-7-7--6-6-6-6--5-5-5-5----|
A|--9-9-9-9--7-7-7-7--6-6-6-6--5-5-5-5----9-9-9-9--7-7-7-7--6-6-6-6--5-5-5-5----|
E|--7-7-7-7--5-5-5-5--4-4-4-4--3-3-3-3----7-7-7-7--5-5-5-5--4-4-4-4--3-3-3-3----|
                       HITCHIN A RIDE                        HITCHIN A RIDE 

e|------------------------------------------------------------------------------|
B|------------------------------------------------------------------------------|
G|------------------------------------------------------------------------------|
D|--9-9-9-9--7-7-7-7--6-6-6-6--5-5-5-5----9-9-9-9--7-7-7-7--6-6-6-6--5-5-5-5----|
A|--9-9-9-9--7-7-7-7--6-6-6-6--5-5-5-5----9-9-9-9--7-7-7-7--6-6-6-6--5-5-5-5----|
E|--7-7-7-7--5-5-5-5--4-4-4-4--3-3-3-3----7-7-7-7--5-5-5-5--4-4-4-4--3-3-3-3----|
                       HITCHIN A RIDE                        HITCHIN A RIDE 

            
            
Suggest correction
Creating personal tab
Creating personal tab
You can edit any tab online and save it as your Personal.

You can edit, replace or remove any tab part or add personal notes – all changes will be seen only by you.

Personal tabs can be accessed anytime from any device, even offline.
Learn more »
Give kudos to tab author, rate the tab!
1 2 3 4 5
comments
print report bad tab
guest
You may want to rate the tab now too:
select rating
Wanna post a correction for this tab? Suggest correction