Oops, an error
Loading. Please wait.

Hitchin A Ride Bass Tab

version 1
10,636 views 6 this week
13 commentsread comments
1 2 3 4 5
x 18
add to favorites
launch autoscroll
font size
0
reset
guitar tuner
Autoscroll
slow
fast
+/-
esc
set tempo
stop
Help us to improve Ultimate-Guitar.com Take our survey!
×
#----------------------------------PLEASE NOTE---------------------------------#
#This file is the author's own work and represents their interpretation of the #
#song. You may only use this file for private study, scholarship, or research. #
#------------------------------------------------------------------------------##

Hitchen' a Ride  by  Green Day
Off the Album "Nimrod"
			VERSE
G*|---------------------------------------|            	
D*|---------------------------------------|	
A*|---------------------------------------|
E*|---7---7---5---5---4---4---2--3--2-----|
	
	Repeat that until the chorus which is:

G*|--------------------------------------------------------------------------|
D*|--------------------------------------------------------------------------|
A*|-----------------------3-3--1-1--0-0--------------------------------------|
E*|-1-1-1-1---3-3-3-3--------------------3-3-----1-1-1-1----3-3-3-3----------|	

	Thats pretty much the entire song....accept for a few variations Mike throws in here and their.
	
	Good Luck-
	Coyote11	(Michael F.) 

	

Suggest correction
comments
print report bad tab
13 comments total. Showing first comments.
0 reply
Bush_Baby 10 Feb 07, 2002 12:00 AM

Pimp Tight tabbin- Sick song to!!
~Britter~ =o) }i{

+1 reply
MikeDirntG3 50 Nov 29, 2002 12:00 AM

this tab is so friggin wrong, it isn't even funny

-1 reply
bass_gurl1972 10 Sep 25, 2004 12:00 AM

this is how the chorus really goes...
G*|---------------------------------------------------------
D*|---------------------------------------------------------
A*|-------------------1-1--0-0------------------------------
E*|-0-0-0-0---1-1-1-1-----------4-4--3-3----0-0-0-0--1-1-1-1

guest
You may want to rate the tab now too:
select rating
Wanna post a correction for this tab? Suggest correction