Oops, an error
Loading. Please wait.

Hitchin A Ride Tab

version 1
140,208 views 255 this week
32 commentsread comments
1 2 3 4 5
excellent!
x 77
add to favorites
launch autoscroll
font size
0
reset
how to read this tab
guitar tuner
Autoscroll
slow
fast
+/-
esc
set tempo
stop
Help us to improve Ultimate-Guitar.com Take our survey!
×
Author
Standard tuning


[Intro] 

(violin arranged for guitar)  tr~~~~
e|-------------------------------------------------------|
B|-------------------------------------------------------|
G|------------------------8------------------------------|
D|------------8h9----11-------11----9----8(9)------------|
A|----9h10--------------------------------------10-------|
E|-------------------------------------------------------|


[Intro]

(guitar)
e|------------------------------------------------------------------------|
B|------------------------------------------------------------------------|
G|------------------------------------------------------------------------|
D|------------------------------------------------------------------------|
A|-99-77-66-555/-99-77-66-555/--------------------------------------------|
E|-77-55-44-333/-77-55-44-333/--------------------------------------------|
  .. .. .. ...  .. .. .. ...


[Verse 1/2]

e|--------------------------------------------------------------------------|
B|--------------------------------------------------------------------------|
G|--------------------------------------------------------------------------|
D|--------------------------------------------------------------------------|
A|-99-77-66-555/--99-77-66-555/-99-77-66-555/-99-77-66-555/-99-77-66-555/---|
E|-77-55-44-333/--77-55-44-333/-77-55-44-333/-77-55-44-333/-77-55-44-333/---|
  .. .. .. ...   .. .. .. ...  .. .. .. ...  .. .. .. ...  .. .. .. ...

e|--------------------------------------------------------|
B|--------------------------------------------------------|
G|--------------------------------------------------------|
D|--------------------------------------------------------|
A|-99-77-66-555/-99-77-66-555/-99-77----------------------|
E|-77-55-44-333/-77-55-44-333/-77-55----------------------|
  .. .. .. ...  .. .. .. ...  .. ..


[Pre-verse]

e|--------------------------------------------------------------------------|
B|--------------------------------------------------------------------------|
G|--------------------------------------------------------------------------|
D|--------------------------------------------------------------------------|
A|-666666-777777-99-77-66-555/-99-77-66-555/-99-77-66-555/-99-77-66---------|
E|-444444-555555-77-55-44-333/-77-55-44-333/-77-55-44-333/-77-55-44---------|


[Verse 2]


[Pre-chorus]

e|------------------------------------------------------------------------------|
B|------------------------------------------------------------------------------|
G|------------------------------------------------------------------------------|
D|------------------------------------------------------------------------------|
A|-666666-777777-99-77-66-555/-99-77-66-555/-99-77-66-555/-999-7777-6666-5555---|
E|-444444-555555-77-55-44-333/-77-55-44-333/-77-55-44-333/-777-5555-4444-3333---|


[Chorus]

e|------------------------------------------------------------------------------|
B|------------------------------------------------------------------------------|
G|------------------------------------------------------------------------------|
D|------------------------------------------------------------------------------|
A|-222222-444444-999-777-666-5555-222222-444------------------------------------|
E|-000000-222222-777-555-444-3333-000000-222------------------------------------|


[Verse 3]

e|-------------------------------------------------------------------------|
B|-------------------------------------------------------------------------|
G|-------------------------------------------------------------------------|
D|-------------------------------------------------------------------------|
A|-99-77-66-555/-99-77-66-555/-99-77-66-555/-99-77-66-555/-99-77-66-555----|
E|-77-55-44-333/-77-55-44-333/-77-55-44-333/-77-55-44-333/-77-55-44-333----|


[Solo]

e|------------------------------------------------------------------------------|
B|-12-12-12-12-12-12-12-12-12-12-12-12/-15-15-15-15-15-15-15-15-15-15-15-15\----|
G|-x--x--x--x--x--x--x--x--x--x--x--x----x--x--x--x--x--x--x--x--x--x--x--x-----|
D|-9--9--9--9--9--9--9--9--9--9--9--9-/-12-12-12-12-12-12-12-12-12-12-12-12\----|
A|------------------------------------------------------------------------------|
E|------------------------------------------------------------------------------|

e|------------------------------------------------------------------------------|
B|-12-12-12-12-12-12-12-12-12-12-12-12-8-8-8-8-8-8-7-7-7-7-7-7------------------|
G|-x--x--x--x--x--x--x--x--x--x--x--x--x-x-x-x-x-x-x-x-x-x-x-x------------------|
D|-9--9--9--9--9--9--9--9--9--9--9--9--5-5-5-5-5-5-4-4-4-4-4-4------------------|
A|------------------------------------------------------------------------------|
E|------------------------------------------------------------------------------|

e|------------------------------------------------------------------------------|
B|-12-12-12-12-12-12-12-12-12-12-12-12/-15-15-15-15-15-15-15-15-15-15-15-15-----|
G|-x--x--x--x--x--x--x--x--x--x--x--x----x--x--x--x--x--x--x--x--x--x--x--x-----|
D|-9--9--9--9--9--9--9--9--9--9--9--9-/-12-12-12-12-12-12-12-12-12-12-12-12-----|
A|------------------------------------------------------------------------------|
E|------------------------------------------------------------------------------|

                                                   ~~hold~bend~~~~~~
e|--------------------------------------------------------------------------------|
B|-17-17-17-17-17-17-17-17-17-17-17-17-17-17-17-17-17-17--------------------------|
G|--x---x---x---x---x---x---x---x---x---x---x---x---x--x--x--x--x--x--------------|
D|-14-14-14-14-14-14-14-14-14-14-14-14-14-14-14-14-14-14--------------------------|
A|--------------------------------------------------------------------------------|
E|--------------------------------------------------------------------------------|

e|------------------------------------------------------------------------------|
B|-17-15-12-15-17-15-12-15-17-15-12-10-12-15-12-10-12-15-17-15-12-15-17-15------|
G|--x--x--x--x--x--x--x--x--x--x--x--x--x--x--x--x--x--x--x--x--x--x--x--x------|
D|-14-12--9-12-14-12--9-12-14-12--9--7--9-12--9--7--9-12-14-12--9-12-14-12------|
A|------------------------------------------------------------------------------|
E|------------------------------------------------------------------------------|

e|--------------------------------------------------------------------------------|
B|-17-17-17-17-17-17-17-17-17-17-17-17--------------------------------------------|
G|--x---x---x---x---x---x---x---x---x---x---x---x---------------------------------|
D|-14-14-14-14-14-14-14-14-14-14-14-14--------------------------------------------|
A|--------------------------------------------------------------------------------|
E|--------------------------------------------------------------------------------|

  ~~~~~~~~~~~~~~~hold~bend~~~~~~~~~~~~
e|--------------------------------------------------|
B|--------------------------------------------------|
G|-17-17-17-17-17-17-17-17-17-17-17-17--------------|
D|--x--x--x--x--x--x--x--x--x--x--x--x--------------|
A|-14-14-14-14-14-14-14-14-14-14-14-14--------------|
E|--------------------------------------------------|


[Chorus]


[Outro] x4

(also played by another guitar during solo)
e|------------------------------------------------------------------------|
B|------------------------------------------------------------------------|
G|------------------------------------------------------------------------|
D|-----777----------------------------------------------------------------|
A|-999-555-555-444--------------------------------------------------------|
E|-777-----333-222--------------------------------------------------------|

 on fourth time the other guitar does this         ~hold~bend~
e|--------------------------------------------------------------------------------|
B|-17-17-17-17-17-17-17-17-17-17-17-17-17-17-17-17--------------------------------|
G|--x---x---x---x---x---x---x---x---x---x---x---x---x--x--x--x--------------------|
D|-14-14-14-14-14-14-14-14-14-14-14-14-14-14-14-14--------------------------------|
A|--------------------------------------------------------------------------------|
E|--------------------------------------------------------------------------------|


[Ending]

e|-4--------|
B|-4--------|
G|-4--------|
D|-4--------|
A|-2--------|
E|-2--------|
 


************************************

| x    Dead note
| (n)  Ghost note
| h    Hammer-on
| /    Slide up
| \    Slide down
| .    Palm mute
| tr   Trill

************************************
Suggest correction
What's this?
You can suggest a correction to this tab. Community and Mods will review your correction and vote to approve or reject it.
comments
print report bad tab
32 comments total. Showing first comments. show 2 bad comments
+2 reply
greendaypunk182 354 wrote on July 18 2003, 12:00 am

hey guys on the outro i accidentally wrote the notes on the a,d, and g string when theyre supposed to be on
the d,g, and b string sry

guest
You may want to rate the tab now too:
select rating
Please do not post tabs as comments. Select "correction" instead!