Oops, an error
Loading. Please wait.

Hitchin A Ride Bass Tab

version 2
11,692 views 3 this week
3 commentsread comments
1 2 3 4 5
x 7
add to favorites
launch autoscroll
font size
0
reset
guitar tuner
Autoscroll
slow
fast
+/-
esc
set tempo
stop
Help us to improve Ultimate-Guitar.com Take our survey!
×
verse
G|-----------------------------------
D|-----------------------------------
A|-----------------------------------
E|-77--55--44--33--------------------

Troubled times
G|-----------------------------------
D|-----------------------------------
A|-----------------------------------
E|--0000--2222---77--55--44--33------

end and guitar solo
G|-----------------------------------
D|-----------------------------------
A|------55---------------------------
E|--77------44--33------------------- X8
Suggest correction
comments
print report bad tab
3 comments total.
0 reply
jackbutt 30 Mar 25, 2002 12:00 AM

this sounds pretty good! i sat there and figured it out myself because i didn't believe what everyone else had tabbed. i think it can be played easer (like instead of 7th fret on e string you could play 2 on a) but this is what i came up with as well. GOOD JOB!!!

0 reply
skapunk2120 10 Jul 08, 2003 12:00 AM

the chorus is wrong and the end and guitar solo is
A|--------55---77---9-12-9-----|
E|--77-----------------------------|

0 reply
robotfrom94 314 Feb 25, 2013 02:55 PM

the verse should be
E|77-55-44-33/-
and possibly multiple Gs, I'm not sure

guest
You may want to rate the tab now too:
select rating
Wanna post a correction for this tab? Suggest correction