Oops, an error
Loading. Please wait.

Hitchin A Ride Bass Tab

version 7
1,185 views 3 this week
no commentswrite comment
1 2 3 4 5
excellent!
x 5
add to favorites
launch autoscroll
font size
0
reset
guitar tuner
Autoscroll
slow
fast
+/-
esc
set tempo
stop
Help us to improve Ultimate-Guitar.com Take our survey!
×
Author
Green Day  Hitchin’ A Ride
Nimrod, 1997

Tuning: Standard

Intro/Verse:

G|--------------------|
D|--------------------|
A|--------------------|
E|--7-7-5-5-4-4-3-33/-|

Chorus:

G|---------------------------|---------------------->
D|---------------------------|---------------------->
A|---------------------------|---------------------->
E|--0~-0-0--0-0—-2~-2-2—-2-2-|--7-7--5-5--4-4--3-33->

G|------------------------|
D|------------------------|
A|------------------------|
E|--0~-0-0--00—-2~-22—-22-|


Guitar solo and and Ending:

G|-------------------|-------------------|
D|-------------------|----------5-5-4-4--|
A|------5-5----------|------5-5----------|
E|--7-7-----3-3-2-2--|--7-7--------------|


Whole Song: Verse x26 – Chorus – Verse x5 – Guitar Solo – Chorus – Ending x3

And after playing ending for the third time
 
G|-------------------|---------------|
D|-------------------|---------------|
A|------5-5----------|---------------|
E|--7-7-----3-3-2-2--|--7-7-5-5-4-4--|

If there’s something wrong please comment (don’t forget to rate)

Hope you like it!
Justanimrod

[  *Ultimate Guitar Archive*  ]
Suggest correction
comments
print report bad tab
guest
You may want to rate the tab now too:
select rating
Please do not post tabs as comments. Select "correction" instead!