Oops, an error
Loading. Please wait.

Holiday Tab

version 2
11,886 views 42 this week
no commentswrite comment
1 2 3 4 5
x 5
add to favorites
launch autoscroll
font size
0
reset
how to read this tab
guitar tuner
Autoscroll
slow
fast
+/-
esc
set tempo
stop
Help us to improve Ultimate-Guitar.com Take our survey!
×
Difficulty
novice
assalamo alikom (Peace be Upon U )all the way from morocco ;)
this is my acoustic version of holiday I tabbed by greenday i hope U like it.
It's my first tab :so if there is any mistake or changement contact me at
oussama_1993.ik@hotmail.com Peace !
 Tuning : Standard

Capo :1

intro: Power chords


E|--------------------------|
B|--------------------------|
G|-9-9-x-5-5-x12-12-x-7-7-x-|
D|-9-9-x-5-5-x12-12-x-7-7-x-|  repeat 4 times ( 4 fois)
A|-7-7-x-3-3-x10-10-x-5-5-x-|
E|--------------------------|

Say, hey!

 E-C-G-D
 E-C-G-D

 E       c           G            D
  Hear the sound of the falling rain
 E       C          G       B          E
  Coming down like an Armageddon flame (Hey!)
C
  The shame
G           B                    E
The ones who died without a name
              C       G         D    E
Hear the dogs howling out of key
     C           G      B                  E
To a hymn called "Faith and Misery" (Hey!)
     C           G      B             D
And bleed, the company lost the war today

Chorus :
E         C                 G              D     E
 I beg to dream and differ from the hollow lies
            C              G           B
This is the dawning of the rest of our lives

On holiday

"The following part is as the same Chord progression As the previous verse"

Hear the drum pounding out of time
Another protester has crossed the line (Hey!)
To find, the money's on the other side

Can I get another Amen? (Amen!)
There's a flag wrapped around a score of men (Hey!)
A gag, a plastic bag on a monument

I beg to dream and differ from the hollow lies
This is the dawning of the rest of our lives
On holiday

E----------------------------------------------------------|
B----------------------------------------------------------|
G---------5---7---------7---9-9----------------------------|
D-2-2-5-5-5-7-7-9/2-5-5-7-9-9-9/2 (Repeat 2 times----------|        Then...
A-2-2-5-5-3-7-5-9/2-5-5-5-9-7-7/2--------------------------|
E-0-0-3-3---5---7/0-3-3---7----/0--------------------------|

E-------------------------------------------------------------------------|
B-------------------------------------------------------------------------|
G-5-5-55--------4-4-44-5-5-3-3--5-5-5-5--------4-4-4-4444444444...--------|
D-5-5-55-5-5-55-4-4-44-5-5-3-3--5-5-5-5-5-5-55-4-4-4-4444444444...--------|
A-3-3-33-5-5-55-2-2-22-7-7-5-5--3-3-3-3-5-5-55-2-2-2-2222444444...--------|
E--------3-3-33-------------------------3-3-33----------------------------|

"After this section repeat waht you did in verse and chorus ...."

(Hey!)
(Say, hey!)

(3,4)

"The representative from California has the floor"

Sieg Heil to the president Gasman
Bombs away is your punishment
Pulverize the Eiffel towers
Who criticize your government
Bang bang goes the broken glass and
Kill all the fags that don't agree
Trials by fire, setting fire
Is not a way that's meant for me
Just cause, just cause, because we're outlaws yeah!

Chorus :plays the same as previous chorus

I beg to dream and differ from the hollow lies
This is the dawning of the rest of our lives
I beg to dream and differ from the hollow lies
This is the dawning of the rest of our lives

This is our lives on holiday

The Outro:
E-C-G-D
E-C-G-D
E-C-G-D
E-C ...
from c chord to ..
E-----------|
B-----------|
G--7---7----|
D--7-9-9-/2-|
A--5-9-7-/2-|
E----7---/0-|
Suggest correction
comments
print report bad tab
guest
You may want to rate the tab now too:
select rating
Wanna post a correction for this tab? Suggest correction