Oops, an error
Loading. Please wait.

Holiday Tab

version 4
19,878 views 1 this week
11 commentsread comments
1 2 3 4 5
worth learning
x 11
add to favorites
launch autoscroll
font size
0
reset
how to read this tab
guitar tuner
Tab Pro tools
  • play this tab
  • loop segment
  • change instrument
  • show fretboard
  • metronome
×
Best way to learn
"Holiday"
Autoscroll
slow
fast
+/-
esc
set tempo
stop
Artist Green Day
Song   Holiday
Album  American Idiot
Tune   Standard EADGBe


Intro
e------------------------------|
b--9--9-x-6-6-x-13-13-x-8-8-8--|
g-10-10-x-6-6-x-13-13-x-8-8-8--|x4
d--x--x-x-x-x-x--x--x-x-x-x-x--|
a--8--8-x-4-4-x-11-11-x-6-6-6--|
E------------------------------|

Verse x2
e--------------------------------------------------------|
b--------------------------------------------------------|
g---------------6--6-6-6-6-6----------------8--8-8-8-8-8-|
d-3--3-3-3-3-3--6--6-6-6-6-6--6--6-6-6-6-6--8--8-8-8-8-8-|
a-3--3-3-3-3-3--4--4-4-4-4-4--6--6-6-6-6-6--6--6-6-6-6-6-|
E-1--1-1-1-1-1----------------4--4-4-4-4-4---------------|

e--------------------------------------------------------------------|
b--------------------------------------------------------------------|
g---------------6--6-6-6-6-6----------------5-5-5-5-5-5-5-5-5-5-5-5--|
d-3--3-3-3-3-3--6--6-6-6-6-6--6--6-6-6-6-6--5-5-5-5-5-5-5-5-5-5-5-5--|
a-3--3-3-3-3-3--4--4-4-4-4-4--6--6-6-6-6-6--3-3-3-3-3-3-3-3-3-3-3-3--|
E-1--1-1-1-1-1----------------4--4-4-4-4-4---------------------------|last time
e--------------------------------------------------------------------|
b--------------------------------------------------------------------|
g-5-5-5-5-5-5-5-5-5-5-5----------------------------------------------|
d-5-5-5-5-5-5-5-5-5-5-5----------------------------------------------|
a-3-3-3-3-3-3-3-3-3-3-3----------------------------------------------|
E--------------------------------------------------------------------|

Chorus
e--------------------------------------------------------|
b--------------------------------------------------------|
g---------------6--6-6-6-6-6----------------8--8-8-8-8-8-|
d-3--3-3-3-3-3--6--6-6-6-6-6--6--6-6-6-6-6--8--8-8-8-8-8-|
a-3--3-3-3-3-3--4--4-4-4-4-4--6--6-6-6-6-6--6--6-6-6-6-6-|
E-1--1-1-1-1-1----------------4--4-4-4-4-4---------------|

e-------------------------------------------------------------------|
b-------------------------------------------------------------------|
g---------------6--6-6-6-6-6----------------5-5-5-5-5-5-5-5-5-5-5-5-|
d-3--3-3-3-3-3--6--6-6-6-6-6--6--6-6-6-6-6--5-5-5-5-5-5-5-5-5-5-5-5-|
a-3--3-3-3-3-3--4--4-4-4-4-4--6--6-6-6-6-6--3-3-3-3-3-3-3-3-3-3-3-3-|
E-1--1-1-1-1-1----------------4--4-4-4-4-4--------------------------|

Intro
e------------------------------|
b--9--9-x-6-6-x-13-13-x-8-8-8--|
g-10-10-x-6-6-x-13-13-x-8-8-8--|x2
d--x--x-x-x-x-x--x--x-x-x-x-x--|
a--8--8-x-4-4-x-11-11-x-6-6-6--|
E------------------------------|

Verse x2
e------------------------------|
b------------------------------|
g-10-10-x-6-6-x-----x-8-8-8----|x3
d-10-10-x-6-6-x-6-6-x-8-8-8----|
a--8--8-x-4-4-x-6-6-x-6-6-6----|
E-------x-----x-4-4-x----------|
last time
e-----------------------|
b-----------------------|
g-5-5-5-5-5-5-5-5-5-5-5-|
d-5-5-5-5-5-5-5-5-5-5-5-|
a-3-3-3-3-3-3-3-3-3-3-3-|
E-----------------------|

Chorus
e--------------------------------------------------------|
b--------------------------------------------------------|
g---------------6--6-6-6-6-6----------------8--8-8-8-8-8-|
d-3--3-3-3-3-3--6--6-6-6-6-6--6--6-6-6-6-6--8--8-8-8-8-8-|
a-3--3-3-3-3-3--4--4-4-4-4-4--6--6-6-6-6-6--6--6-6-6-6-6-|
E-1--1-1-1-1-1----------------4--4-4-4-4-4---------------|

e-------------------------------------------------------------------|
b-------------------------------------------------------------------|
g---------------6--6-6-6-6-6----------------5-5-5-5-5-5-5-5-5-5-5-5-|
d-3--3-3-3-3-3--6--6-6-6-6-6--6--6-6-6-6-6--5-5-5-5-5-5-5-5-5-5-5-5-|
a-3--3-3-3-3-3--4--4-4-4-4-4--6--6-6-6-6-6--3-3-3-3-3-3-3-3-3-3-3-3-|
E-1--1-1-1-1-1----------------4--4-4-4-4-4--------------------------|

Bridge x2
e------------------------------------------------|
b------------------------------------------------|
g------------6--3-----4-------------8--5------10-|
d-3-3-\-6-6--6--3--4--4--3-3-\-6-6--8--5--10--10-|
a-3-3-\-6-6--4--1--4--6--3-3-\-6-6--6--3--10---8-|
E-1-1-\-4-4--------6-----1-1-\-4-4---------8-----|

Solo
e-----------------------------8------8---8-|
b----------8-9-------8-------------8---8---|
g-10-10-10-----8-6-5---9-5\10---10---------|
d------------------------------------------|
a------------------------------------------|
E------------------------------------------|
cont.
e---------------------------------------------------------------------12-12-12-12-12-12-12-12-12-12-12-12-12-/-13|
b----------8-9--------------------------------13-13-13-13-13-13-13-13--------------------------------------------|
g-10-10-10-----8-6-5-5-5\12-12-12-12-12-12-12--------------------------------------------------------------------|
d----------------------------------------------------------------------------------------------------------------|
a----------------------------------------------------------------------------------------------------------------|
E----------------------------------------------------------------------------------------------------------------|

After Bass Interlude/Solo Play
e-------------|
b-------------|
g-8------10---|
d-8--10--10---|
a-6--10---8---|
E-----8-------|

Outro
e------------------------------  e--------------|
b------------------------------  b--------------|
g-10-10-x-6-6-x-----x-8-8-8----x3g-8------10----|
d-10-10-x-6-6-x-6-6-x-8-8-8----  d-8--10--10--3-|
a--8--8-x-4-4-x-6-6-x-6-6-6----  a-6--10---8--3-|
E-------x-----x-4-4-x----------  E-----8------1-|

Order
Figure it out i gotta eat dinner
comments
print report bad tab
11 comments total. Showing first comments.
0 reply
Liam wrote on October 20 2004, 12:00 am

hi my penis is big how big is urs

0 reply
distortionsucks wrote on October 29 2004, 12:00 am

first off, id like to state that liam is a ***brain. secondly, this tab sucks.

0 reply
splinter843 wrote on January 4 2005, 12:00 am

THIS IS THE ONLY CORRECT TAB FOR THE INTRO, THIS GUYS GOT IT PERFECT

I want to post or [tab]
guest
You may want to rate the tab now too:
select rating
Please do not post tabs as comments. Select "correction" instead!