Oops, an error
Loading. Please wait.

Holiday Bass Tab

version 8
26,104 views 75 this week
1 commentread comment
1 2 3 4 5
excellent!
x 29
add to favorites
launch autoscroll
font size
0
reset
guitar tuner
Tab Pro tools
  • play this tab
  • loop segment
  • change instrument
  • show fretboard
  • metronome
×
Best way to learn
"Holiday"
Autoscroll
slow
fast
+/-
esc
set tempo
stop
Contributor
-----------------------------------------------------------------------------
                             HOLIDAY - Green Day
-----------------------------------------------------------------------------

Tabbed by: Matt Broback
E-mail: 37hambone@gmail.com

Tuning: E A D G

. = accent/staccato note


INTRO    x7
|----------|-----------|-----------|------------|
|*--------*|-----------|*----.----.|-------..-.*|
|*--------*|----------.|*8-8-04-4-0|----.6-66-0*|
|----------|-------8\/8|-----------|4-4-0-------|


VERSE 1
|----------|-----------|----------|-----------|
|----.----.|-------..-.|----.----.|----.--..-.|
|8-8-04-4-0|----.6-66-0|8-8-04-4-0|----03-33-0|
|----------|4-4-0------|----------|4-4--------|

|----------|-----------|----------|------------|
|----.----.|-------..-.|----..-..-|..-..-..-...|
|8-8-04-4-0|----.6-66-0|3-3-33-33-|33-33-33-330|
|----------|4-4-0------|----------|------------|

|----------|-----------|----------|-----------|
|----.----.|-------..-.|----.----.|----.--..-.|
|8-8-04-4-0|----.6-66-0|8-8-04-4-0|----03-33-0|
|----------|4-4-0------|----------|4-4--------|

|----------|-----------|----------|-------------|
|----.----.|-------..-.|----..-..-|..-..-..-..--|
|8-8-04-4-0|----.6-66-0|3-3-33-33-|33-33-33-33-.|
|----------|4-4-0------|----------|------------0|


CHORUS 1
|----------|----------|----------|------------|
|----------|------..-.|----------|--..-..-..-.|
|------..-.|4-4-4-44-0|------..-.|6-66-66-66-0|
|1-1-1-11-0|----------|4-4-4-44-0|------------|

|----------|----------|----------|------------|--------|
|----------|------..-.|----------|--..-..-..-.|.-------|
|------..-.|4-4-4-44-0|------..-.|3-33-33-33-3|3-------|
|1-1-1-11-0|----------|4-4-4-44-0|------------|--------|


BRIDGE   x4
|----------|
|*--------*|
|*--------*|
|----------|


VERSE 2
|----------|-----------|----------|-----------|
|----.----.|-------..-.|----.----.|----.--..-.|
|8-8-04-4-0|----.6-66-0|8-8-04-4-0|----03-33-0|
|----------|4-4-0------|----------|4-4--------|

|----------|-----------|----------|------------|
|----.----.|-------..-.|----..-..-|..-..-..-...|
|8-8-04-4-0|----.6-66-0|3-3-33-33-|33-33-33-330|
|----------|4-4-0------|----------|------------|

|----------|-----------|----------|-----------|
|----.----.|-------..-.|----.----.|----.--..-.|
|8-8-04-4-0|----.6-66-0|8-8-04-4-0|----03-33-0|
|----------|4-4-0------|----------|4-4--------|

|----------|-----------|----------|-------------|
|----.----.|-------..-.|----..-..-|..-..-..-..--|
|8-8-04-4-0|----.6-66-0|3-3-33-33-|33-33-33-33\.|
|----------|4-4-0------|----------|------------0|


CHORUS 2
|----------|----------|----------|------------|
|----------|------..-.|----------|--..-..-..-.|
|------..-.|4-4-4-44-0|------..-.|6-66-66-66-0|
|1-1-1-11-0|----------|4-4-4-44-0|------------|

|----------|----------|----------|------------|--------|
|------..-.|------..-.|----------|--..-..-..-.|.-------|
|8-8-8-88-0|4-4-4-44-0|------..-.|3-33-33-33-3|3-------|
|----------|----------|4-4-4-44-0|------------|--------|


SOLO
|-----------|--------|----------|---------|
|*---------.|----1---|---------.|1---3---*|
|*----.----0|4-1---3\|----.----0|--3---3\*|
|-1-1-34-4--|--------|1-1-34-4--|---------|

|----------|----------|----------|-------..--|
|------..-.|----------|------..-.|3-3-.1-11-.|
|4-4-4-44-6|------..-.|3-3-3-33-0|----1-----0|
|----------|4-4-4-44-0|----------|-----------|

|----------|----------|----------|------------|
|------..-.|----------|----..-..-|..-..-..-..-|
|4-4-4-44-6|------..-.|3-3-33-33-|33-33-33-33-|
|----------|4-4-4-44-0|----------|------------|

|------.-.-----.-.-|----.-.--.-.--.-.--.|
|5/10-1010-10-1010-|10-1010-1010-1010-10|
|------------------|--------------------|
|------------------|--------------------|


BASS SOLO                               x6
|-----------|--------|----------|---------|
|*---------.|----1---|---------.|1---3-3\*|
|*----.----0|4-1---3\|----.----0|--3-----*|
|-1-1-34-4--|--------|1-1-34-4--|---------|

|----------|-------------|-----------|------.-.--.-.--.-.-|
|----..-..-|..-..-..-----|--..-..-..-|5/10-1010-1010-1010\|
|3-3-33-33-|33-33-33--3\.|3-33-33-33-|--------------------|
|----------|------------3|-----------|--------------------|


CHORUS 3
|----------|----------|----------|------------|
|----------|------..-.|----------|--..-..-..-.|
|------..-.|4-4-4-44-0|------..-.|6-66-66-66-0|
|1-1-1-11-0|----------|4-4-4-44-0|------------|

|----------|----------|----------|-----------|
|------..-.|------..-.|----------|--..-..-..-|
|8-8-8-88-0|4-4-4-44-0|------..-.|3-33-33-33/|
|----------|----------|4-4-4-44-0|-----------|

|----------|----------|----------|------------|
|------..-.|------..-.|----------|--..-..-..-.|
|8-8-8-88-0|4-4-4-44-0|------..-.|6-66-66-66-0|
|----------|----------|4-4-4-44-0|------------|

|----------|----------|----------|------------|
|------..-.|------..-.|----------|--..-..-..-.|
|8-8-8-88-0|4-4-4-44-0|------..-.|3-33-33-33-3|
|----------|----------|4-4-4-44-0|------------|


OUTRO                                                                x3
|------------|-----------|------.-.--.-.--.-.-|-----------|------------|
|.-..-..-..-.|.-..-..-..-|5/10-1010-1010-1010-|*----.----.|-------..-.*|
|3-33-33-33-3|3-33-33-33-|--------------------|*8-8-04-4-0|----.6-66-0*|
|------------|-----------|--------------------|-----------|4-4-0-------|

|----------|--------|--------|
|----.----.|----3---|--------|
|8-8-04-4-0|6-3-----|--------|
|----------|------1~|~~~~~~~~|
comments
print report bad tab
1 comment total.
+3 reply
Unclejoshe wrote on June 15 2013, 04:46 am

Finally someone posted the correct version

I want to post or [tab]
guest
You may want to rate the tab now too:
select rating
Please do not post tabs as comments. Select "correction" instead!