Oops, an error
Loading. Please wait.

Homecoming Bass Tab

version 1
version 1

Whole song

14,622 views 21 this week
11 commentsread comments
1 2 3 4 5
accurate
x 30
add to favorites
launch autoscroll
font size
0
reset
guitar tuner
Autoscroll
slow
fast
+/-
esc
set tempo
stop
Help us to improve Ultimate-Guitar.com Take our survey!
×
Song: Homecoming [Track 12 of 13](9:18)
Band: Green Day
Album: American Idiot (2004)
Bassist: Mike Dirnt
Tabber: InkubusTransplants
Tuning: Standard 4-String (EADG)

Great song. Better with a guitar. Im almost 100% sure this is how it goes.
I saw them live and this is what Dirnt was playing. You may want to listen
to the song for rythms, though. This is as close as I could tab the rythms.
Please rate!

Key:
/ Slide Up
\ Slide Down
* Let Ring


Part I:
|The Death of Saint Jimmy|


Come in at (0:51)

Intro-
G-------------------------------------------------------------|
D-------------------------------------------------------------|
A--------55-----------------5---5-----------------------------|
E-5-5-55----0-0-000--5-5-55---5----0-0-000--------------------|


Verse-
G-------------------------------------------------------------|
D-------------------------------------------------------------|
A--------55-----------------5---5-----------------------------|
E-5-5-55----0-0-000--5-5-55---5----0-0-000--------------------|

G-------------------------------------------------------------|
D-------------------------------------------------------------|
A--------55------------5-5--55-5---5--------------------------|
E-5-5-55----0-0-000------------------0-0-000------------------|


Chorus-
G-------------------------------------------------------------|
D------------------------------444444-22----------------------|
A------------00000-----------------------00000000-------------|
E-22222-00----------------------------------------------------|

G-------------------------------------------------------------|
D-------------------------------------------------------------|
A---------------00000000---5555--5--5-------------------------|
E-222222-00------------------------5----00000-----------------|

Order:
Intro  X 1
Verse  X 2
Chorus X 1
Intro  X 1
Verse  X 1
Chorus X 1


Part II:
|East 12th Street|

Intro-
G-------------------------------------------------------------|
D-------------------------------------------------------------|
A----5--------------------------------------------------------|
E-5----5-3-5--5-----------------------------------------------|

Verse-
G-------------------------------------------------------------|
D-------------------------------------------------------------|
A-5555/9/1212\10--1010-------------1010-99-77-55--------------|
E------------------------10101010--------------------55555555-|


Chorus-
G-------------------------------------------------------------|
D-------------------------------------------------------------|
A-5-55-5----------5-------------------------------------------|
E-----------5-3-5---------------------------------------------|


Bridge-
G-------------------------------------------------------------|
D-------------------------------------------------------------|
A-3-3-3-3-3-3-3-3---------------------------------------------|
E----------------------5-5-5-5-5-5-5-5------------------------|


Outro-
G-------------------------------------------------------------|
D-------------------------------------------------------------|
A-3-3-3-3-----------------------------------------------------|
E-----------5-5-5-5-------------------------------------------|

(fifth time)
G-------------------------------------------------------------|
D-------------------------------------------------------------|
A-5\--3\--------5--5--5-------5-------------------------------|
E--------3\--5\-----------3--5--------------------------------|

Order:
Intro  X 12
Verse  X 4
Chorus X 4
Bridge X 4
Outro  X 5

Part III:
|Nobody Likes You|


Intro-
G-------------------------------------------------------------|
D-------------------------------------------------------------|
A-5*----------------------------------------------------------|
E-------------------------------------------------------------|


Verse-
G-------------------------------------------------------------|
D-------------------------------------------------------------|
A-5-5-5-5-5-5-------------------------------------------------|
E----------------5-5-5-5-5-5--3-3-3-3-3-3--5-5-5-5-5-5--------|


Pre-Chorus-
G-------------------------------------------------------------|
D-------------------------------------------------------------|
A-2-2-2-2-2-2-------------------------------------------------|
E----------------5-5-5-5-5-5--3-3-3-3-3-3--5-5-5-5-5-5--------|

G-------------------------------------------------------------|
D-------------------------------------------------------------|
A-2-2-2-2-2-2--4-4-4-4-4-4-4--5-5-5-5-5-5---------------------|
E-------------------------------------------------------------|


Chorus-
G-------------------------------------------------------------|
D-------------------------------------------------------------|
A-5-5-5-5-5-5-------------------------------------------------|
E----------------5-5-5-5-5-5--3-3-3-3-3-3--5-5-5-5-5-5--------|

Order:
Verse      X4
Pre-Chorus X1
Chorus     X4

Part IV:
|Rock and Roll Girl Friend|


Intro-
G-------------------------------------------------------------|
D-------------------------------------------------------------|
A-5*--7*------------------------------------------------------|
E-------------------------------------------------------------|

Verse-
G-------------------------------------------------------------|
D-------------------------------------------------------------|
A----------------------------5555555555555555-----------------|
E-5555555555555555--------------------------------------------|

G-------------------------------------------------------------|
D-------------------------------------------------------------|
A---------------------------7777777777777777------------------|
E-5555555555555555--------------------------------------------|

Outro-
G-------------------------------------------------------------|
D-------------------------------------------------------------|
A-----------------------------------5-------------------------|
E-3333-5555-3333-5555-3333-5--5--5----------------------------|

Order:
Intro  X1
Verse  X4
Outro  X1


Part V:
|We're Comming Home|


Intro-
G-------------------------------------------------------------|
D--(Guitar)---------------------------------------------------|
A-----------------5-------------------------------------------|
E------------3--5---------------------------------------------|

G-------------------------------------------------------------|
D--(Guitar)---------------------------------------------------|
A-------------------------------------------------------------|
E------------3--5---------------------------------------------|

G-------------------------------------------------------------|
D-------------------------------------------------------------|
A-5-5---5-5---------------------------------------------------|
E-------------7777---3---5------------------------------------|


Verse-
G-------------------------------------------------------------|
D-------------------------------------------------------------|
A--5-5--5-5--2-2--2-2--5-5--9-9--2-2--------------------------|
E----------------------------------------------3--5-----------|

G-------------------------------------------------------------|
D-------------------------------------------------------------|
A--5-5--5-5--2-2--2-2-----------------------------------------|
E--------------------------3--3--3--3--5--5--3-5--------------|

G-------------------------------------------------------------|
D-------------------------------------------------------------|
A--5-5--5-5--2-2--2-2--5-5--5-5--2-2--------------------------|
E---------------------------------------------3-5-------------|

G-------------------------------------------------------------|
D-------------------------------------------------------------|
A--5-5--5-5--2-2--2-2-----------------------5-----------------|
E--------------------------3--3--3--3--5--5----5--------------|


Pre-Chorus-
G-------------------------------------------------------------|
D-------------------------------------------------------------|
A---------------------------------5---------------------------|
E-3-3-3-3--5-5-5-5--3-3-3-3--5-5----5-------------------------|

G-------------------------------------------------------------|
D-------------------------------------------------------------|
A-------------------------------------77777777----------------|
E-3-3-3-3--5-5-5-5--77777777----------------------------------|


Chorus-
G-------------------------------------------------------------|
D-------------------------------------------------------------|
A-5-5------------------5-5---------------------------5--------|
E------3-3--5-5-5-5-------3-3--5-5-5-5--3-3-3-3--5-5---5------|


ENDING-

Riff 1-
G-------------------------------------------------------------|
D-------------------------------------------------------------|
A-5*----------------------------------------------------------|
E-----5*------------------------------------------------------|

Riff 2-
G-------------------------------------------------------------|
D-------------------------------------------------------------|
A-------5*----------------------------------------------------|
E-3*---------3*---5*------------------------------------------|

Riff 3-
G-------------------------------------------------------------|
D-------------------------------------------------------------|
A-5*----------------------------------------------------------|
E-----5*------------------------------------------------------|

Riff 4-
G-------------------------------------------------------------|
D-------------------------------------------------------------|
A-5-5555-5555-555-555-555-------------------------------------|
E---------------------------------5-5555-5555-555-333-333-----|

Outro-
G-------------------------------------------------------------|
D-------------------------------------------------------------|
A-5*----------------------------------------------------------|
E-------------------------------------------------------------|

Order:
Riff 1 X3
Riff 2 X1
Riff 3 X4
Riff 4 X4
Outro  X1


Thats it! Have fun!

Contact:
E-mail- detroitgrandpubahs@yahoo.com
AIM- jabirubass
Suggest correction
comments
print report bad tab
11 comments total. Showing first comments. show 2 bad comments
+6 reply
M1DN1GHT 93 wrote on January 21 2006, 07:23 pm

screw those guys. the tab sounds great!

guest
You may want to rate the tab now too:
select rating
Please do not post tabs as comments. Select "correction" instead!