Oops, an error
Loading. Please wait.

Homecoming Bass Tab

version 2
version 2

Whole song

5,091 views 1 this week
1 commentread comment
1 2 3 4 5
accurate
x 5
add to favorites
launch autoscroll
font size
0
reset
guitar tuner
Autoscroll
slow
fast
+/-
esc
set tempo
stop
Help us to improve Ultimate-Guitar.com Take our survey!
×
Author
greendaze 1,109
                     ------------------------------------------------------------------
		       GREEN DAY - HOMECOMING (AMERICAN IDIOT) 
                     ------------------------------------------------------------------

[ Tabber: LUIZ MANZANO (BRASIL) ]
[ e-mail: lukdeluca@yahoo.com.br]


PART I - The death of St. Jimmy

Intro
Guitar/vocal

Instrumental
G|------------------------------------|
D|------------------------------------|
A|-------5-------------5-5------------|
E|5-5-555-0-0-0000-55-5-5--0-0-0000---|

"In the streets of shame..."
"There's a glow of light..."
"In the crowd of pain..."
G|----------------------------------------------------------|
D|----------------------------------------------------------|
A|-------5-7---7----5-5-7---7-------5-7---7-5-5-55-5-7777---|
E|5-5-555-0-000-55-5-5-0-000-5-5-555-0-000--------5---------|


"What the hells your name..."
"Jimmy died today..."
G|-------------------------------------------------------------------------------|
D|--------------------44444-422-------------------------------55555-5-55-77777---|
A|22222-200-55555-5-55---------55555-5-55-22222-200-55555-5-55-------------------|
E|-------------------------------------------------------------------------------|

_________________________________________________________________________________

PART II - East 12th ST.

"And nobody cares..."
G|-----------|
D|-----------|
A|5----------|
E|-535-5-5---|

"Jesus filling out paperwork now..."
G|------------------------------------|
D|------79-55-4----5544---------------|
A|55-7/9-------5555----7755-----------|
E|-------------------------55555-57---|

"Somebody get me out of here..."
G|-------------|
D|-------------|
A|5555-----5---|
E|----5-3-5----|

"So far away..."
G|--------------------------------------------------------------------------|
D|------------------------577777777------------------------577777777--------|
A|33333333--------33333357---------33333333--------33333357---------3333----|
E|--------55555555-------------------------55555555---------------------5555|

G|------------------------------------------|
D|------------------------------------------|
A|3333----3333----3333----5\0-3\0-----------|
E|----5555----5555----5555--------3\0-5\0---|

"This life like dream aint for me"
G|----------|
D|----------|
A|555---5---|
E|---535----|

_________________________________________________________________________________

PART III - Nobody likes you!

"I fell asleep while watching spike TV..."
G|-----------------------------|
D|------777777-555555-777777---|
A|555555-----------------------|
E|-----------------------------|

"Left me here alone..."
G|--------------------------------------------------------|
D|------777777-555555----------------------------777777---|
A|222222-------------555555-222222-444444-555555-555555---|
E|--------------------------------------------------------|

"Nobody likes you..."
G|-----------------------------|
D|------777777-555555-777777---|
A|555555-----------------------|
E|-----------------------------|

_________________________________________________________________________________

PART IV - Rock and roll girlfriend.

"I got a rock and roll band..."
G|--------------------------------------------------------------------|
D|-------------------------------------------------77777777-----------|
A|--------55555555--------7777777----------55555555--------77777777---|
E|55555555--------55555557-------3/55555555---------------------------|

"I got a kid in new york..."
G|-----------------------------------------------------------|
D|77777777---------------------------------------------------|
A|--------55555555--------777777-------------------------5---|
E|----------------55555557------333-5-5-333-5-5-333-5-5-5----|

_________________________________________________________________________________

PART V - We're coming home again.

Intro
G|--------------------------------------|
D|--------------------------------------|
A|---5-----------55-55-22--55-55-22-----|
E|3-5----0-10\3-5--------35--------35---|

"Here they come marching down the street..."
G|------------------------------------------------|
D|-----------------4------------------------------|
A|55-55-22-22-2/5-5-5-22--55-55-22-22-------------|
E|----------------------35-----------3333-55-35---|

"The time has come and its going nowhere..."
G|----------------------------------------------|
D|----------------------------------------------|
A|55-55-22-22-2/5-55-22--55-55-22-22-------5----|
E|---------------------35-----------3333-55-5---|

"The world is spinning..."
G|-------------------------------------------|
D|---------54------54------------------------|
A|-----------75--5---75----2222-7777777777---|
E|3333-5555----55-5----5555------------------|

"So send my love a letterbomb..."
G|------------------------------------------|
D|------------------------------------------|
A|55--------55------------------------------|
E|--33-5555---33-5555-3333333333-55555-35---|

"Home, We're coming home again..."
G|---------------------------|
D|------77-7\0------77-7\0---|
A|5-----------5--------------|
E|-----5-----------5---------|

"I started fuckin' running..."
G|---------------------------|
D|------------------77-7\0---|
A|-----5---------------------|
E|3-----------3----5---------|

"Home, We're coming home again..." (8:25)
G|-------------------------------------|
D|-------------------------------------|
A|5-555-5555-555-5---------------------|
E|-----5--------5-5-5555-5555-55-3-3---|

"Nobody likes you..." (8:59)
G|----------------|
D|----------------|
A|5-5-5-5-5-5-5---|
E|-5-5-5-5-5-5----|




| /  slide up
| \  slide down
| h  hammer-on
| p  pull-off
| ~  vibrato
| +  harmonic
| x  Mute note
===============================================================================
Suggest correction
What's this?
You can suggest a correction to this tab. Community and Mods will review your correction and vote to approve or reject it.
comments
print report bad tab
1 comment total.
0 reply
SimounZon 332 wrote on December 24 2013, 12:35 am, edited on April 13 2014, 08:21 am

I really appreciate the East 12th St. Tab I have the Bass Track and I know it's so hard

guest
You may want to rate the tab now too:
select rating
Please do not post tabs as comments. Select "correction" instead!