Oops, an error
Loading. Please wait.

Homecoming Tab

version 4
version 4

Whole song

Video

103,252 views 156 this week
26 commentsread comments
1 2 3 4 5
x 78
add to favorites
launch autoscroll
font size
0
reset
how to read this tab
guitar tuner
Autoscroll
slow
fast
+/-
esc
set tempo
stop
Help us to improve Ultimate-Guitar.com Take our survey!
×
Author
Here's the video of me playing it.  http://www.youtube.com/watch?v=E32em3BtRCM

Amp Settings: Treble 10, Middle 7, Bass 5, Drive 6 (on most of song)



Part I: The Death of St. Jimmy


[Intro]

(Treble at 10, middle and bass at 0)

e|---------000---------------0-000-----------|
B|---2-----000-3---22-xx-2---0-000-3---2-----|
G|-0-2-0---111-2---22-xx-2-0-1-111-2---2-----|
D|-0-2-0-2-222-0---22-xx-2-0-2-222-0---2-----| x3
A|-0-0-0-2-222---4-00-xx-0-0-2-222---4-0-----|
E|-------0-000--------xx-----0-000-------/12-|

e|---------------------------------------|
B|---0-000-00---223232-0-000-00-2--------|
G|-0-1-111-11-2-222222-1-111-11-2--------|
D|-0-2-222-22-2-222222-2-222-22-2--------|
A|-0-2-222-22-0-000000-2-222-22-0--------|
E|---0-000-00----------0-000-00----------|

e|-2-2-222---------0-|
B|-3-3-333-2-22-32-0-|
G|-2-2-222-2-22-22-1-|
D|-0-0-000-2-22-22-2-|
A|---------0-00-00-2-|
E|-----------------0-|

e|----------0--------------0-|
B|----2---3-0----2---3-2-2-0-|
G|----2---2-1----2---2-2-2-1-|
D|----2---0-2----2---0-2-2-2-|
A|----0-----2----0-----0-0-2-|
E|12/-------0--------------0-|


[Intro]

Part 2(Treble 10, Middle 7, Bass 5)

e|--------------0-0-0------------0-0-0-0-|
B|----2-2-2-3---0-0-0-2-2--3-2-2-0-0-0-0-|
G|----2-2-2-2---1-1-1-2-2--2-2-2-1-1-1-1-|
D|----2-2-2-0-2-2-2-2-2-2--0-2-2-2-2-2-2-|
A|----0-0-0---2-2-2-2-0-0----0-0-2-2-2-2-|
E|12/---------0-0-0-0------------0-0-0-0-|


[Verse]

e|--------------0-0-0--------------0-0-0-|
B|----------3---0-0-0-----3--------0-0-0-|
G|----2-2-2-2---1-1-1-2-2-2-2-22---1-1-1-|
D|----2-2-2-0-2-2-2-2-2-2-0-2-22-2-2-2-2-|
A|----0-0-0---2-2-2-2-0-0---0-00-2-2-2-2-|
E|12/---------0-0-0-0------------0-0-0-0-|

e|-----------0-0-0-----------------|
B|-------3---0-0-0-----------------|
G|-2-2-2-2---1-1-1-7-7-7---9-9-9-9-|
D|-2-2-2-0-2-2-2-2-7-7-7-7-9-9-9-9-|
A|-0-0-0---2-2-2-2-5-5-5-7-7-7-7-7-|
E|---------0-0-0-0-------5---------|


[Chorus]

e|----------------------------------|
B|----------------------------------|
G|---------2-2-2-2----7-7-7---99999-|
D|-4-4-4-2-2-2-2-2-x3-7-7-7-7-99999-|
A|-4-4-4-2-0-0-0-0----5-5-5-7-77777-|
E|-2-2-2-0------------------5-------|

Song Order:
[Intro]
Intro Prt. 2
[Verse]
[Chorus]
Intro Prt. 2
[Verse]
[Chorus]

Lyrics:

My heart is beating from me
I am standing all alone
Please call me only if you are coming home     (Intro)
Waste another year flies by
Waste a night or two
You taught me how to live

In the streets of shame
Where you've lost your dreams in the rain
There's no sign of hope
The stems and seeds of the last of the dope    (Verse 1)
There's a glow of light
The St. Jimmy is the spark in the night
Bearing gifts and trust
The fixture in the city of lust

What the hell's your name?
Whats your pleasure, what is your pain?        (Chorus 1)
Do you dream to much?
Do you think what you need is a crutch?

In the crowd of pain
St. Jimmy comes without any shame
He says We're f*cked up!                       (Verse 2)
But we're not the same
And mom and dad are the ones you can blame

Jimmy died today
He blew his brains out into the bay            (Chorus 2)
In the state of mind
It's my own private suicide


Part II: East 12th Street


[Intro]

e|----------xx-xx--------------------xxxxxxxx-|
B|----------xx-xx--------------------xxxxxxxx-|
G|--7-------xx-xx--------------------xxxxxxxx-|
D|7-7-7-5-7-xx7xx-(repeat 4 times)---xxxxxxxx-|
A|7-5-7-5-7-xx7xx--------------------xxxxxxxx-|
E|5---5-3-5-xx5xx--------------------xxxxxxxx-|


[Verse]

e|----------------------------------|
B|-3-3-3-3-3-3-3-3-3-3-3-3----------|
G|-2-2-2-2-0-0-2-2-0-0-0-0-22222222-|
D|-0-0-0-0-0-0-0-0-0-0-0-0-22222222-|
A|---------x-x-----x-x-x-x-00000000-|
E|---------3-3-----3-3-3-3----------|

 Intermission 1:
e|-22222-3-2-0-2----------------|
B|-33333-3-3-3-3----------------|
G|-22222-2-2-2-2--7-777-------7-|
D|-00000-0-0-0-0--7-777-7-5-7-7-|
A|----------------5-555-7-5-7-5-|
E|----------------------5-3-5---|


[Intermission 2]

e|---------------------------------|
B|---------------------------------|
G|-5-5-555-5-5-555-----------------|
D|-5-5-555-5-5-555-7-7-777-7-7-777-|x4
A|-3-3-333-3-3-333-7-7-777-7-7-777-|
E|-----------------5-5-555-5-5-555-|

 Gtr. 1:
e|---------5-55-555---------9-99-999-|
B|-5-5-555----------5-5-555----------|
G|-----------------------------------|
D|-----------------------------------| x2
A|-----------------------------------|
E|-----------------------------------|

 Gtr. 2:
e|-----------------|
B|-----------------|
G|-5-5-555---------|
D|-5-5-555-7-7-777-| x4
A|-3-3-333-7-7-777-|
E|---------5-5-555-|


[Outro]

e|------------------------------------------------|
B|------------------------------------------------|
G|----7-----5---------------------7-7-7-----7---7-|
D|----7-----5------5-------7------7-7-7-5-7-7---7-|
A|----5-----3------5-------7------5-5-5-5-7-5---5-|
E|/12---/12---/12--3--/12--5--/12-------3-5-------|

Song Order:
[Intro]
[Verse]
Intermission 1 x4
Intermission 2
[Outro]

Lyrics:
Well nobody cares
Well nobody cares
Does anyone care                     (Intro)
If nobody cares?

No, nobody cares
No, nobody cares
Does anyone care                     (Intro)
If nobody cares?

Jesus filling out paperwork now
At the facility on East 12th Street
He's not listening to a word now
He's in his own world and he's day dreaming   (Verse)
He'd rather be doing someting else now
Cigarettes and coffee with the underbelly
His life's on the line with anxiety now
She had enough and he had plenty

Somebody get me out of here!
Anybody get me out of here!                   (Intermission 1)
Somebody get me out of here!
Get me the f*ck right out of here!

So far away
I don't wanna stay
Get me outta here right now                   (Intermission 2)
Just wanna be free
Is there a possibility
Get me outta here right now

This life like dream ain't for me             (Outro)



Part III: Nobody Likes You


[Intro]

(Clean with some effects)

e|-222-222-22-222-222-22-222-222-22-222-222-22-|
B|-333-333-33-333-333-33-333-333-33-333-333-33-|
G|-222-222-22-222-222-22-222-222-22-222-222-22-|
D|-000-000-00-000-000-00-000-000-00-000-000-00-|
A|---------------------------------------------|
E|---------------------------------------------|


[Verse]

(all this is optional for guitar.)

e|-----------------------------|
B|-----------------------------|
G|-----------------------------|
D|-777777----------------------|
A|-555555-777777-555555-777777-|
E|--------555555-333333-555555-|
PM****** ****** ****** ******


[Pre-Chorus]

e|---------------------------------------------------------|
B|---------------------------------------------------------|
G|---------------------------------------------------------|
D|----------------------777777--------666666-777777--------|
A|-999999-777777-555555-555555-999999-444444-555555-777777-|
E|-777777-555555-333333--------777777---------------555555-|
PM****** ****** ****** ****** ****** ****** ****** ******


[Chorus]

e|-----------------------------|
B|-----------------------------|
G|-----------------------------|
D|-777777----------------------|
A|-555555-777777-555555-777777-|
E|--------555555-333333-555555-|
  ****** ****** ****** ******
Song Order:
[Intro]
[Verse]
[Pre-Chorus]
[Chorus]

Lyrics:
I fell asleep while watching Spike TV
After 10 cups of coffee
And your still not here
Dreaming of a song
But something went wrong
And you cant tell anyone                   (Verse)
Cuz you're not here

Left me here alone
Well I should have stayed home           (Pre-Chorus)
After 10 cups of coffee
I'm thinking

Where'd you go?
Nobody likes you
Everyone left you
They're all out without you havin fun
Where'd you go                            (Chorus)
Nobody likes you
Everyone left you
They're all out without you havin fun
Where'd you go



Part IV: Rock and Roll Girlfriend


[Intro]

e|-----------------------------|
B|-----------------------------|
G|-7-------9-------------------|
D|-7-------9-------------------|
A|-5-------7-------------------|
E|-----------------------------|


[Verse]

e|---------------------------------------------------------------------|
B|---------------------------------------------------------------------|
G|------------------7777777777777777------------------9999999999999999-|
D|-7777777777777777-7777777777777777-7777777777777777-9999999999999999-|
A|-7777777777777777-5555555555555555-7777777777777777-7777777777777777-|
E|-5555555555555555------------------5555555555555555------------------|


[Solo Lick]

e|------12-----12-----------------------|
B|----12-----12-------------------------|
G|-^14----^14-----13-14-----------------|
D|--------------------------------------|
A|--------------------------------------|
E|--------------------------------------|


[Outro]

e|-----------------------------|
B|-----------------------------|
G|---------------------------7-|
D|-555-777-555-777-555-7-7-7-7-|
A|-555-777-555-777-555-7-7-7-5-|
E|-333-555-333-555-333-5-5-5---|

Song Order
[Intro]
[Verse]
Guitar Lick (In verse 2 on the last few E's)
[Outro]

Lyrics:

GEEZ!...Ah..                          (Intro)

I got a rock and roll band
I got a rock and roll life
I got a rock and roll girlfriend
And another ex-wife
I got a rock and roll house
I got a rock and roll car
I play the sh*t out the drums         (Verse)
And I can play the guitar
I got a kid in new york
I got a kid in the bay
I haven't drank or smoked nothin'
In over 22 days

So get off my case
Get off of my case                    (Outro)


Part V: We're Coming Home Again


[Intro]

e|----xxx----xxx--------|
B|----xxx----xxx--------|
G|-77-xxx-77-xxx--------|
D|-77-xxx-77-xxx-99-5-7-|
A|-55-xxx-55-xxx-99-5-7-|
E|----xxx----xxx-77-3-5-|


[Verse]

e|------------------------------------------------------------|
B|------------------------------------------------------------|
G|--------------------------------------------------------7---|
D|---------------------------5-7--------------------------7-7-|
A|---------------------------5-7--------------------------5-7-|
E|---------------------------3-5----------------------------5-|


[Pre-Chorus]

e|-------------------------------------------------------------------|
B|-------------------------------------------------------------------|
G|---------------------------------7---------------------------------|
D|-5-5-5555-7-7-7777-5-5-5555-7-77-7-7--5-5-5555-7-7-7777-9-99-99-99-|
A|-5-5-5555-7-7-7777-5-5-5555-7-77-5-7--5-5-5555-7-7-7777-9-99-99-99-|
E|-3-3-3333-5-5-5555-3-3-3333-5-55---5--3-3-3333-5-5-5555-7-77-77-77-|

e|-------------|
B|-------------|
G|-99999999999-|
D|-99999999999-|
A|-77777777777-|
E|-------------|


[Chorus]

e|-----------------------------------------------------------------------|
B|-----------------------------------------------------------------------|
G|-7-77-----------------7-77---------------------------------------------|
D|-7-77-5-55-7-77-77-77-7-77-5-55-7-77-77-77-555555555555-777777--5--7---|
A|-5-55-5-55-7-77-77-77-5-55-5-55-7-77-77-77-555555555555-777777--5--7---|
E|------3-33-5-55-55-55------3-33-5-55-55-55-333333333333-555555--3--5---|


[Interlude]

(The noises in the background are just pickslides and slides)

e|-2-----2-3-2-0-2---------------------|
B|-3-----3-3-3-3-3----2----------------|
G|-2-----2-2-2-2-2----2----------------|
D|-0-----0-0-0-0-0----2----------------|
A|--------------------0----------------|
E|-------------------------------------|


[Verse]

e|------------------------------------|
B|------------------------------------|
G|------------7-----------------------|
D|-5----------7----------5----------7-|
A|-5----------5----------5----------7-|
E|-3---------------------3----------5-|


[Interlude]

e|---------------------------------------------|
B|---------------------------------------------|
G|-7-7777-7777-777777777-----------------------|
D|-7-7777-7777-777777777-7-7777-7777-777555555-|
A|-5-5555-5555-555555555-7-7777-7777-777555555-|
E|-----------------------5-5555-5555-555333333-|


[Outro]

e|----------------------------------------|
B|----------------------------------------|
G|-7--------------------------------------|
D|-7--------------------------------------|
A|-5--------------------------------------|
E|----------------------------------------|

Song Order:

[Intro]
[Verse]
[Pre-Chorus]
[Chorus]
[Interlude]
[Verse]
[Interlude]
Interlude 2 x4
[Outro]

Lyrics:

Here they come marching down the street
Like a desperation murmur of a heart beat
Coming back from the edge of town
Underneath their feet                      (Verse)
The time has come and it going nowhere
Nobody ever said that life was fair now
Go-carts and guns are treasures they will bear
In the summer heat

The world is spinning
Around and around
Out of control again
From the 7-11 to the fear of breaking down     (Pre-Chorus)
So send my love a letterbomb
And visit me in hell
We're the ones going

Home
We're coming home again                  (Interlude)
Home
We're coming home again

I started f*ckin' running
Just as soon as my feet touch ground     (Verse 2)
We're back in Barrio
But to you and me, that's jingle town

Home
We're coming home again                  (Interlude)
Home
We're coming home again

Home
We're coming home again
Home
We're coming home again
Home                                     (Interlude 2)
We're coming home again
Home
We're coming home again

Nobody likes you
Everyone left you                        (Outro)
They're all out without you havin' fun

 



************************************

| x  Dead note
| /  Slide up
| ^  Bend 
| *  Palm mute

************************************
Suggest correction
comments
print report bad tab
26 comments total. Showing first comments.
0 reply
StJimmy88 80 Mar 27, 2007 09:39 AM

sounds gooood to me. i have a homecoming tab but i had a lot to figure out for myself...this one seems to do it all. bravo!

0 reply
offbeat 26 Mar 27, 2007 04:21 PM

looks good, best one yet. keep it up.

0 reply
Baltic Ave. 10 Mar 27, 2007 06:45 PM

i thought the one before this was perfect....UNTIL I SAW THIS ONE!!!!
Awesome job dude completely right. 5 stars!!!!

guest
You may want to rate the tab now too:
select rating
Wanna post a correction for this tab? Suggest correction