Oops, an error
Loading. Please wait.

Homecoming Tab

version 5
version 5

Whole song

Video

9,076 views 6 this week
no commentswrite comment
1 2 3 4 5
accurate
x 7
add to favorites
launch autoscroll
font size
0
reset
how to read this tab
guitar tuner
Autoscroll
slow
fast
+/-
esc
set tempo
stop
Help us to improve Ultimate-Guitar.com Take our survey!
×
Contributor
Andreyx 1,304
Band :Green Day    
Song : Homecoming 
Tabs :andreyx

What the chord symbols represent
D:    xx0232
G:    320003
A:    x0222x
Asus: x0223x

------I. Death of St.Jimmy--------


Intro
e|-------|
B|-----0-|
G|-----0-|
D|-----0-|
A|-------|
E|-12\---|

Verse
E|---------------|-2--------------|---------------|-2----------|-------|
B|-2----0--0-0---|-3----2~--2-x-x-|-2----0--0-0---|-3----2~--2-|-----0-|
G|-2----1--1-1---|-2----2~--2-x-x-|-2----1--1-1---|-2----2~--2-|-----0-|
D|-2----2--2-2---|-0----2~--2-x-x-|-2----2--2-2---|-0----2~--2-|-----0-|
A|-0----2----2---|---4--0~--0-x-x-|-0----2----2---|---4--0~--0-|-------|
E|----0-0------0-|----------------|----0-0------0-|------------|-12\---|

Verse part 2
e|---------------------------|---------------|---2--2--2--2------------2---------|
B|-0-0----0-0-0--2-2-2-2-2-2-|-0-0----0-0--0-|-2-3--3--3--3------2-2-x-3--2-x--0-|
G|-1-1----1-1-1--2-2-2-2-2-2-|-1-1----1-1--1-|-2-2--2--2--2------2-2-x-2--2-x--1-|
D|-2-2----2-2-2--2-2-2-2-2-2-|-2-2----2-2--2-|-2-0--0--0--0------2-2-x----2-x--2-|
A|-2-2----2-2-2--0-0-0-0-0-0-|-2-2----2-2--2-|-0------------0-0--0-0-x----0-x--2-|
E|-0-0-0--0-0-0--------------|-0-0-0--0-0--0-|---------------------------------0-|

Interlude 
E|-----------0--|------------------0-----------|
B|-2----3----0--|--2----3---2---3--0-----------|
G|-2----2----1--|--2----2---2---2--1-----------|
D|-2----0----2--|--2----0---2---0--1-----------|
A|-0---------2--|--0--------0------2-----------|
E|-----------0--|------------------0----12\1p0-|

Verse 2 (the rest of the band enter here)
e|---------------------0-0-0-0---|--------------------0--0-0-0-----|
B|-2--2--2--2----3-----0-0-0-0---|-2--2-----3-2-3-----0--0-0-0-----|
G|-2--2--2--2----2-----1-1-1-1---|-2--2-----2-2-2-----1--1-1-1-----|
D|-2--2--2--2----0-----2-2-2-2---|-2--2-----0-2-0-----2--2-2-2-----|
A|-0--0--0--0--0-------2-2-2-2-0-|-0--0--0----0-------2--2-2-2--0--|
E|------------------0--0-0-0-0---|-----------------0--0--0-0-0-----|

Chorus 
e|------------------------------|----------------------------|
B|------------------------------|----------------------------|
G|------------------2-2-2-2-2-2-|-----------------2-2-2-2-2-2|
D|-4-4-4-4--4-4--2--2-2-2-2-2-2-|-4-4-4-4-4-4--2--2-2-2-2-2-2|
A|-4-4-4-4--4-4--2--0-0-0-0-0-0-|-4-4-4-4-4-4--2--0-0-0-0-0-0|
E|-2-2-2-2--2-2--0--------------|-2-2-2-2-2-2--0-------------|

Chorus part 2
e|----------------------|-2-2-2-2-2-2---------|--------------------------|
B|----------------------|-3-3-3-3-3-3--2-2-2-2|---------------0-2-2-2---3|
G|---------------2-2-2-2|-2-2-2-2-2-2--2-2-2-2|-9-9-9-9-9-----0-2-2-2---2|
D|4-4-4-4--4-4-2-2-2-2-2|-0-0-0-0-0-0--2-2-2-2|-9-9-9-9-9-----0-2-2-2---0|
A|4-4-4-4--4-4-2-0-0-0-0|--------------0-0-0-0|-7-7-7-7-7-----0-0-0-0-0--|
E|2-2-2-2--2-2-0--------|---------------------|-0-0-0-0-0—12\------------|

Chorus part 3
e|----------------------|-2-2-2-2-2--2---------|-----------------------|
B|----------------------|-3-3-3-3-3--3--2-2-x-x|-----------------------|
G|---------------2-2-2-2|-2-2-2-2-2--2--2-2-x-x|-9-9-9-9---------------|
D|4-4-4-4--4-4-2-2-2-2-2|-0-0-0-0-0--0--2-2-x-x|-9-9-9-9---------------|
A|4-4-4-4--4-4-2-0-0-0-0|---------------0-0-x-x|-7-7-7-7--x-x-x-x-x-x--|
E|2-2-2-2--2-2-0--------|----------------------|-0-0-0-0-—x-x-x-x-x-x--|

Order

Intro
Verse x3
Verse part 2 
Interlude
Verse 2 x5
Chorus
Chorus part 2
Verse 2 x3
Chorus
Chorus part 3





---------II. East 12th street (2.25)--------

Intro
e|----------------|---------------|---------------|---------------|---------|
B|----------------|---------------|---------------|---------------|---------|
G|-----7----------|----7----------|----7----------|----7----------|---------|
D|--7--7--7--5--7-|-7--7--7--5--7-|-7--7--7--5--7-|-7--7--7--5--7-|-x-x-x-x-| x3
A|--7--5--7--5--7-|-7--5--7--5--7-|-7--5--7--5--7-|-7--5--7--5--7-|-x-x-x-x-|
E|--5-----5--3--5-|-5-----5--3--5-|-5-----5--3--5-|-5-----5--3--5-|-x-x-x-x-|


Verse

D                G         D         
Jesus filling out paper work now        

G                A      Asus   A
 At the facility on east 12th street

D                 G        D         
He’s not listening to a word now        

G                         A       Asus   A
 He’s in his own world and he’s daydreaming

D                  G             D           
He’d rather be doing somethin else now 

      G                             A   Asus  A
Like cigarettes and coffee with the under belly

    D                   G      D     
His life’s one line with anxiety now 

G                 A     Asus   A
She had enough and he had plenty

Bridge
Acoustic               |Electric
e|-2-2-2-2--3--2--0--2-|---------------------|
B|-3-3-3-3--3--3--3--3-|---------------------|
G|-2-2-2-2--3--2-----2-|-7-7-7-7-----------7-|
D|-0-0-0-0--0--0-----0-|-7-7-7-7--7--5--7--7-|x4
A|---------------------|-5-5-5-5--7--5--7--5-|
E|---------------------|----------5--3--5----|

Chorus
e|----------------------------------|----------------------------------|
B|----------------------------------|----------------------------------|
G|-5-5-5-5-5-5-5-5------------------|-5-5-5-5-5-5-5-5------------------|
D|-5-5-5-5-5-5-5-5--7-7-7-7-7-7-7-7-|-5-5-5-5-5-5-5-5--7-7-7-7-7-7-7-7-| x2
A|-3-3-3-3-3-3-3-3--7-7-7-7-7-7-7-7-|-3-3-3-3-3-3-3-3--7-7-7-7-7-7-7-7-|
E|------------------5-5-5-5-5-5-5-5-|------------------5-5-5-5-5-5-5-5-|

Outro
Guitar 1
e|------------------------------------------------------------------------|
B|------------------------------------------------------------------------|
G|-5-5-5-5-----------5-5-5-5-----------5-5-5-5-----------5-5-5-5----------|
D|-5-5-5-5--7-7-7-7--5-5-5-5--7-7-7-7--5-5-5-5--7-7-7-7--5-5-5-5--7-7-7-7-|
A|-3-3-3-3--7-7-7-7--3-3-3-3--7-7-7-7--3-3-3-3--7-7-7-7--3-3-3-3--7-7-7-7-|
E|----------5-5-5-5-----------5-5-5-5-----------5-5-5-5-----------5-5-5-5-|

Guitar 2
e|--------5--------------9---------------5------------------9--------------|
B|-5--------------5--------------5-----------------5-----------------------|
G|-------------------------------------------------------------------------|
D|-------------------------------------------------------------------------|
A|-------------------------------------------------------------------------|
E|-------------------------------------------------------------------------|

Outro part 2
e|------------------------------|--------------------|
B|------------------------------|------------------7-|
G|-7------5---------------------|--7--7--7---------7-|
D|-7------5------5------7-------|--7--7--7---------7-|
A|-5-/17\-3-/15\-5------7-------|--5--5--5---5--7--5-|
E|---------------3-/15\-5-/17\--|------------3--5----|

Order

Intro
Verse
Bridge
Chorus
Outro

---------III. Nobody likes you (4.02)-----


Guitar
E|--2--| just repeat this throughout the whole song
B|--3--| soak it in reverb and possibly add a
G|--2--| ‘room reverb’ effect to it
D|--0--|
A|-----|
E|-----|

Bass
Verse 
G|---------------------------------------------------|
D|---------------------------------------------------|
A|-5-5-5-5-5-5---------------------------------------|
E|-------------5-5-5-5-5-5--3-3-3-3-3-3--5-5-5-5-5-5-|
PM *************************************************

Pre Chorus
G|---------------------------------------------------|
D|---------------------------------------------------|
A|-2-2-2-2-2-2---------------------------5-5-5-5-5-5-|
E|--------------5-5-5-5-5-5--3-3-3-3-3-3-------------|
PM *************************************************

G|---------------------------------------------------|
D|---------------------------------------------------|
A|-2-2-2-2-2-2--4-4-4-4-4-4--5-5-5-5-5-5-------------|
E|---------------------------------------5-5-5-5-5-5-|
PM *************************************************

Chorus
G|---------------------------------------------------------------------------|
D|---------------------------------------------------------------------------|
A|-5-5-5-5-5-5---------------------------------------5-5-5-5-5-5-------------|
E|-------------5-5-5-5-5-5--3-3-3-3-3-3--5-5-5-5-5-5-------------5-5-5-5-5-5-|
PM *************************************************************************

G|--------------------------|
D|--------------------------|
A|--------------------------|
E|-3-3-3-3-3-3--5-5-5-5-5-5-|
PM ************************

Order

Verse x4
Pre Chorus
Chorus x2

 -----IV. Rock and Roll girlfriend (5.23)-------

Intro
e|--------------------------------------------|
B|-----------------------------------------0--|
G|--7-7--7~----9-9--9~---------------------0--|
D|--7-7--7~----9-9--9~-----(Drum break)----0--|
A|--5-5--5~----7-7--7~------------------------|
E|-------------0-0--0~------------------------|
Verse
e|------------------------------------------------------------------------------|
B|------------------------------------------------------------------------------|
G|--------------------------7-7-7-7-7-7-7-7-7-7-7-7-7---------------------------|
D|-7-7-7-7-7-7-7-7-7-7-7-7--7-7-7-7-7-7-7-7-7-7-7-7-7--7-7-7-7-7-7-7-7-7-7-7-7-7|
A|-7-7-7-7-7-7-7-7-7-7-7-7--5-5-5-5-5-5-5-5-5-5-5-5-5--7-7-7-7-7-7-7-7-7-7-7-7-7|
E|-5-5-5-5-5-5-5-5-5-5-5-5-----------------------------5-5-5-5-5-5-5-5-5-5-5-5-5|

e|-------------------------|
B|-------------------------|
G|-9-9-9-9-9-9-9-9-9-9-9-9-|
D|-9-9-9-9-9-9-9-9-9-9-9-9-|
A|-7-7-7-7-7-7-7-7-7-7-7-7-|
E|-------------------------|

Solo (this is played on the second repeat of the verse) 
e|----------12-----------12-----------|
B|-------12-----------12--------------| bu means bend up a whole step
G|-14bu---------14bu--------13-14~~~~-|
D|------------------------------------|
A|------------------------------------|
E|------------------------------------|

Outro
e|----------------------------------------------------------|
B|----------------------------------------------------------|
G|----------------------------------------------------------|
D|-5--7--5--7----5--7--5--7----5--7--5--7-----5~--7~--5~--7-|
A|-5--7--5--7----5--7--5--7----5--7--5--7-----5~--7~--5~--7-|
E|-3--5--3--5----3--5--3--5----3--5--3--5-----3~--5~--3~--5-|

Order

Intro
Verse x3
Outro



--------V. We're Coming Home Again (6.06)------------

Intro

Guitar 1
e|---------------------------------------|---------------------------------------|
B|---------------------------------------|---------------------------------------|
G|-7-7-x-x-x--7-7-x-x-x----------------7-|-7-7-x-x-x--7-7-x-x-x----------------7-|
D|-7-7-x-x-x--7-7-x-x-x--9-9-9-9--5--7-7-|-7-7-x-x-x--7-7-x-x-x--9-9-9-9--5--7-7-|
A|-5-5-x-x-x--5-5-x-x-x--9-9-9-9--5--7-5-|-5-5-x-x-x--5-5-x-x-x--9-9-9-9--5--7-5-|
E|-----------------------7-7-7-7--3--5---|-----------------------7-7-7-7--3--5---|

Guitar 2
e|---------------------------------------|---------------------------------------|
B|---------------------------------------|---------------------------------------|
G|-------------------------------------7-|-------------------------------------7-|
D|--------------------------------5--7-7-|--------------------------------5--7-7-|
A|--------------------------------5--7-5-|--------------------------------5--7-5-|
E|--------------------------------3--5---|--------------------------------3--5---|

Guitar 1
e|---------------------------------------|---------------------------------------|
B|---------------------------------------|---------------------------------------|
G|-7-7-x-x-x--7-7-x-x-x----------------7-|-7-7-x-x-x--7-7-x-x-x----------------7-|
D|-7-7-x-x-x--7-7-x-x-x--9-9-9-9--5--7-7-|-7-7-x-x-x--7-7-x-x-x--9-9-9-9--5--7-7-|
A|-5-5-x-x-x--5-5-x-x-x--9-9-9-9--5--7-5-|-5-5-x-x-x--5-5-x-x-x--9-9-9-9--5--7-5-|
E|-----------------------7-7-7-7--3--5---|-----------------------7-7-7-7--3--5---|

Guitar 2
e|---------------------------------------|---------------------------------------|
B|---------------------------------------|---------------------------------------|
G|-7-7-x-x-x--7-7-x-x-x----------------7-|-7-7-x-x-x--7-7-x-x-x----------------7-|
D|-7-7-x-x-x--7-7-x-x-x--9-9-9-9--5--7-7-|-7-7-x-x-x--7-7-x-x-x--9-9-9-9--5--7-7-|
A|-5-5-x-x-x--5-5-x-x-x--9-9-9-9--5--7-5-|-5-5-x-x-x--5-5-x-x-x--9-9-9-9--5--7-5-|
E|-----------------------7-7-7-7--3--5---|-----------------------7-7-7-7--3--5---|


Verse
Guitar 1 (clean)
e|-2-2-2-3-----------2-2-2-2-------3---|-2-2-2-3-----------2-2-2-2-------3---|
B|-3-3-3-3--3-3-3-3--3-3-3-3--3-3--0-2-|-3-3-3-3--3-3-3-3--3-3-3-3--3-3--0-2-|
G|-2-2-2-2--4-4-4-4--2-2-2-2--4-4--0-2-|-2-2-2-2--4-4-4-4--2-2-2-2--4-4--0-2-|
D|-0-0-0-0--4-4-4-4--0-0-0-0--4-4--0-2-|-0-0-0-0--4-4-4-4--0-0-0-0--4-4--0-2-|
A|----------2-2-2-2-----------2-2--2-0-|----------2-2-2-2-----------2-2--2-0-|
E|---------------------------------3---|---------------------------------3---|

Guitar 2 (electric)
e|-------------------------------------|-------------------------------------|
B|-------------------------------------|-------------------------------------|
G|-------------------------------------|-----------------------------------2-|
D|-------------------------------------|---------------------------------5-2-|
A|-------------------------------------|---------------------------------5-0-|
E|-------------------------------------|---------------------------------3---|

Guitar 1 (clean)
e|-2-2-2-3-----------2-2-2-2-------3---|-2-2-2-3-----------3-3-3-3--------3---|
B|-3-3-3-3--3-3-3-3--3-3-3-3--3-3--0-2-|-3-3-3-3--3-3-3-3--0-0-0-0--2-2---3-2-|
G|-2-2-2-2--4-4-4-4--2-2-2-2--4-4--0-2-|-2-2-2-2--4-4-4-4--0-0-0-0--2-2---2-2-|
D|-0-0-0-0--4-4-4-4--0-0-0-0--4-4--0-2-|-0-0-0-0--4-4-4-4--0-0-0-0--2-2---0-2-|
A|----------2-2-2-2-----------2-2--2-0-|----------2-2-2-2--2-2-2-2--0-0-----0-|
E|---------------------------------3---|-------------------3-3-3-3------------|

Guitar 2 (electric)
e|-------------------------------------|--------------------------------------|
B|-------------------------------------|--------------------------------------|
G|-------------------------------------|-----------------------------------7--|
D|-------------------------------------|-----------------------------------7-7|
A|-------------------------------------|-----------------------------------5-7|
E|-------------------------------------|-------------------------------10\---5|

Pre Chorus
Guitar 2 (no guitar 1 in this part)
e|-------------------------------------------|-----------------------|
B|---------------------------------------7---|-----------------------|
G|-4--4-4-4---6--6-6-6-6--4--4-4-4--6-6--7-6-|-4--4-4-4---6--6-6-6-6-|
D|-5--5-5-5---7--7-7-7-7--5--5-5-5--7-7--7-7-|-5--5-5-5---7--7-7-7-7-|
A|-5--5-5-5---7--7-7-7-7--5--5-5-5--7-7--5-7-|-5--5-5-5---7--7-7-7-7-|
E|-3--3-3-3---5--5-5-5-5--3--3-3-3--5-5----5-|-3--3-3-3---5--5-5-5-5-|

e|----------------------------------------------------------------------------------|
B|-------------------------------7-7-----------------------7-7----------------------|
G|-9-9-9-9-9-9-------------------7-7-4-4--6-6-6-6-6-6-6-6--7-7-4-4--6-6-6-6-6-6-6-6-|
D|-9-9-9-9-9-9--9-9-9-9-9-9-9-9--7-7-5-5--7-7-7-7-7-7-7-7--7-7-5-5--7-7-7-7-7-7-7-7-|
A|-7-7-7-7-7-7--9-9-9-9-9-9-9-9--5-5-5-5--7-7-7-7-7-7-7-7--5-5-5-5--7-7-7-7-7-7-7-7-|
E|--------------7-7-7-7-7-7-7-7------3-3--5-5-5-5-5-5-5-5------3-3--5-5-5-5-5-5-5-5-|

e|---------------------------------------0~--|
B|---------------------------------------2~--|
G|-4-4-4-4-4-4-4-4-4-4--6-6-6-6--4--6----3~--|
D|-5-5-5-5-5-5-5-5-5-5--7-7-7-7--5--7----2~--|
A|-5-5-5-5-5-5-5-5-5-5--7-7-7-7--5--7----0~--|
E|-3-3-3-3-3-3-3-3-3-3--5-5-5-5--3--5--------|

Chorus (pick slides played a lot in the background as well)
Guitar 1 only till otherwise stated
e|-2-------------|---------------|---------------|--------------|
B|-3-------------|---------------|-2-------------|--------------|
G|-2-------------|---------------|-2-------------|--------------|
D|-0-------------|---------------|-2-------------|--------------| x2 
A|---------------|---------------|-0-------------|--------------|
E|---------------|---------------|---------------|--------------|
  Home__________     we’re coming home_________ a__gain

Chorus continued
e|-3-------------------|-----------------------2----------------------------|
B|-3-------------------|-----------------------3----------------------------|
G|-0-------------------|-----------------------2----------------------------|
D|-0-------------------|-----------------------0----------------------------|
A|-2-------------------|----------------------------------------------------|
E|-3-------------------|----------------------------------------------------|
       I started fuckin running as soon as my feet touched ground_______

e|-3-------------------|--------------------------------------------------------|
B|-3-------------------|-------------------------------2------------------------|
G|-0-------------------|-------------------------------2------------------------|
D|-0-------------------|-------------------------------2------------------------|
A|-2-------------------|-------------------------------0------------------------|
E|-3-------------------|--------------------------------------------------------|
       We’re back in the bar-ri – o____ and to you and me  that’s jingle town that’s

Post Chorus
e|-2-------------|---------------|---------------|--------------|
B|-3-------------|---------------|-2-------------|--------------|
G|-2-------------|---------------|-2-------------|--------------|
D|-0-------------|---------------|-2-------------|--------------|
A|---------------|---------------|-0-------------|--------------|
E|---------------|---------------|---------------|--------------|
  Home__________     we’re coming home_________ a__gain

Interlude
Guitars 1 and 2
e|-2---2-2-2-2---2-2-2--2---2-2-2-2-2-2-2-2-2-------------------------------|
B|-3---3-3-3-3---3-3-3--3---3-3-3-3-3-3-3-3-3--2--2-2-2-2--2-2-2--2---2-2-2-|
G|-2---2-2-2-2---2-2-2--2---2-2-2-2-2-2-2-2-2--2--2-2-2-2--2-2-2--2---2-2-2-|
D|-0---0-0-0-0---0-0-0--0---0-0-0-0-0-0-0-0-0--2--2-2-2-2--2-2-2--2---2-2-2-|
A|---------------------------------------------0--0-0-0-0--0-0-0--0---0-0-0-|
E|--------------------------------------------------------------------------|

e|-3--3--3--3--3--3--|
B|-0--0--0--0--0--0--|
G|-0--0--0--0--0--0--|
D|-0--0--0--0--0--0--|
A|-2--2--2--2--2--2--|
E|-3--3--3--3--3--3--|

Interlude 2
Guitars 1 and 2
e|-2---2-2-2-2---2-2-2--2---2-2-2-2-2-2-2-2-2--------------------|-----------|
B|-3---3-3-3-3---3-3-3--3---3-3-3-3-3-3-3-3-3--2--2-2-2-2--2-2-2-|--3---3--3-|
G|-2---2-2-2-2---2-2-2--2---2-2-2-2-2-2-2-2-2--2--2-2-2-2--2-2-2-|--2---2--2-|
D|-0---0-0-0-0---0-0-0--0---0-0-0-0-0-0-0-0-0--2--2-2-2-2--2-2-2-|--0---0--0-|
A|---------------------------------------------0--0-0-0-0--0-0-0-|--x---x--x-|
E|---------------------------------------------------------------|--3---3--3-|

e|---------------------|
B|-3--3--3--3--3--3--3-|
G|-2--2--2--2--2--2--2-|
D|-0--0--0--0--0--0--0-|
A|-x--x--x--x--x--x--x-|
E|-3--3--3--3--3--3--3-|

Outro
Guitar 1 only
e|-2~--|
B|-3~--|
G|-2~--|
D|-0~--|
A|-----|
E|-----|


Order

Intro
Verse
Pre-Chorus
Chorus
Post Chorus x4
Interlude x3
Interlude 2
Outro
comments
print report bad tab
I want to post or [tab]
guest
You may want to rate the tab now too:
select rating
Please do not post tabs as comments. Select "correction" instead!