Oops, an error
Loading. Please wait.

Horseshoes And Handgrenades Bass Tab

version 1
version 1

Whole song

Interactive

13,060 views 9 this week
no commentswrite comment
1 2 3 4 5
excellent!
x 9
add to favorites
launch autoscroll
font size
0
reset
guitar tuner
Autoscroll
slow
fast
+/-
esc
set tempo
stop
Help us to improve Ultimate-Guitar.com Take our survey!
×
Author
-------------------------------------------------------------------------------
	             Horseshoes and Handgrenades-Green Day
-------------------------------------------------------------------------------

Tabbed By:Stjimmy34 
Tuning:Standard
Guitar 1
G|---------------------------------|-----------------------------------------|
D|----------------------------(X2)-|-----------------------------------------|
A|----5-7-77-0---------------------|-14x8--12x8--11x8--10x5------------------|
E|-7-----------55-0-2-0-2-0-2------|-----------------------------------------|


Verse x8
G|---------------------------------------------------------------------------|
D|---------------------------------------------------------------------------|
A|----5-7-77-0---------------------------------------------------------------|
E|-7-----------55-0-2-0-2-0-2------------------------------------------------|


Chorus
G|---------------------------------------------------------------------------|
D|---------------------------------------------------------------------------|
A|-7777777777777-------------------------7777777777777777--------------------|
E|---------------55-6-7777777777777-6-55------------------2222222222222------|

Verse x8

Chorus


Bridge
G|---------------------------------------------------------------------------|
D|---------------------------------------------------------------------------|
A|---------------------------------------------------------------------------|
E|-777-5----777-5----777-5----777-5------------------------------------------|

Verse X4


Second part of intro

G|------------------------------|--------------------------------------------|
D|------------------------------|--------------------------------------------|
A|-14x8--12x8--11x8--10x8--(x3)-|-14x8--12x8--11x8-10-10-10------------------|
E|------------------------------|--------------------------------------------|

Verse x4

Outro
G|---------------------------------------------------------------------------|
D|---------------------------------------------------------------------------|
A|----5-7-------7-0-7-0-------5-7-------7-0-7-0-------5-7-------7-0-7-0------|
E|-7-------5-7-----------5-7-------5-7-----------5-7-------5-7---------------|

G|---------------------------------------------------------------------------|
D|---------------------------------------------------------------------------|
A|------5-7-------7-0-7-0----------------------------------------------------|
E|-5-7-------5-7-----------5-777-5-------------------------------------------|


| /  slide up
| \  slide down
| h  hammer-on
| p  pull-off
| ~  vibrato
| +  harmonic
| x  Mute note
===============================================================================
Suggest correction
comments
print report bad tab
guest
You may want to rate the tab now too:
select rating
Please do not post tabs as comments. Select "correction" instead!