Oops, an error
Loading. Please wait.

Horseshoes And Handgrenades Tab

version 2
version 2

Whole song

Interactive

32,518 views 15 this week
1 commentread comment
1 2 3 4 5
excellent!
x 3
add to favorites
launch autoscroll
font size
0
reset
how to read this tab
guitar tuner
Tab Pro tools
  • play this tab
  • loop segment
  • change instrument
  • show fretboard
  • metronome
×
Best way to learn
"Horseshoes And Handgrenades"
Autoscroll
slow
fast
+/-
esc
set tempo
stop
Contributor
-------------------------------------------------------------------------------
                    Horseshoes and Handgrenades-Green Day
-------------------------------------------------------------------------------
Tabbed by:Stjimmy34
Tuning:Standard

Intro

Guitar 1
e|---------------------------------|-----------------------------------------|
B|---------------------------------|-----------------------------------------|
G|----7-9-99-----------------------|----7-9-9--------------------------------|
D|-9--7-9-99-0-77-0-4-0-4-0-4-(X3)-|-9--7-9-9-0-77-0-4-----------------------|
A|-9--5-7-77-0-77-0-4-0-4-0-4------|-9--5-7-7-0-77-0-4-----------------------|
E|-7---------0-55-0-2-0-2-0-2------|-7--------0-55-0-2-----------------------|

Then

Guitar 1
e|---------------------------------|-----------------------------------------|
B|---------------------------------|-----------------------------------------|
G|----7-9-99-----------------------|-----------------------------------------|
D|-9--7-9-99-0-77-0-4-0-4-0-4-(X2)-|-----------------------------------------|
A|-9--5-7-77-0-77-0-4-0-4-0-4------|-----------------------------------------|
E|-7---------0-55-0-2-0-2-0-2------|-77777777-55555555-44444444-333333-------|

Guitar 2
e|---------------------------------|-----------------------------------------|
B|---------------------------------|----------------------------888888-------|
G|----7-9-99-----------------------|-44444444-77777777-99999999--------------|
D|-9--7-9-99-0-77-0-4-0-4-0-4-(X2)-|-----------------------------------------|
A|-9--5-7-77-0-77-0-4-0-4-0-4------|-----------------------------------------|
E|-7---------0-55-0-2-0-2-0-2------|-----------------------------------------|


Verse x8
e|---------------------------------------------------------------------------|
B|---------------------------------------------------------------------------|
G|----7-9-99-----------------------------------------------------------------|
D|-9--7-9-99-0-77-0-4-0-4-0-4------------------------------------------------|
A|-9--5-7-77-0-77-0-4-0-4-0-4------------------------------------------------|
E|-7---------0-55-0-2-0-2-0-2------------------------------------------------|


Chorus
e|---------------------------------------------------------------------------|
B|---------------------------------------------------------------------------|
G|-9999999999999-------------------------9999999999999999--------------------|
D|-9999999999999-77-8-9999999999999-8-77-9999999999999999-4444444444444------|
A|-7777777777777-77-8-9999999999999-8-77-7777777777777777-4444444444444------|
E|---------------55-6-7777777777777-6-55------------------2222222222222------|

Verse x8

Chorus


Bridge
e|---------------------------------------------------------------------------|
B|---------------------------------------------------------------------------|
G|---------------------------------------------------------------------------|
D|-999-7----999-7----999-7----999-7------------------------------------------|
A|-999-7----999-7----999-7----999-7------------------------------------------|
E|-777-5----777-5----777-5----777-5------------------------------------------|

Verse X4


Second part of intro

Guitar 1
e|------------------------------------------|-----------------------------------|
B|------------------------------------------|-----------------------------------|
G|-------------------------------------(x2)-|-----------------------------------|
D|------------------------------------------|-----------------------------------|
A|------------------------------------------|-----------------------------------|
E|-77777777-55555555-44444444-33333333------|-77777777-55555555-44444444-15(x8)-|

e|---------------------------------------------------------------------------|
B|---------------------------------------------------------------------------|
G|---------------------------------------------------------------------------|
D|---------------------------------------------------------------------------|
A|---------------------------------------------------------------------------|
E|-77777777-55555555-44444444-33333333-77777777-55555555-44444444-333--------|

Guitar 2
e|------------------------------------------|--------------------------------|
B|----------------------------88888888------|----------------------------888-|
G|-44444444-77777777-99999999----------(x3)-|-44444444-77777777-99999999-----|
D|------------------------------------------|--------------------------------|
A|------------------------------------------|--------------------------------|
E|------------------------------------------|--------------------------------|

Guitar 3 Not sure if this is right
e|------------------------------------------|--------------------------------|
B|----------33333333-55555555-88888888------|----------33333333-55555555-888-|
G|-44444444-22222222-44444444-77777777-(x3)-|-44444444-22222222-44444444-777-|
D|-xxxxxxxx-00000000-22222222-55555555------|-xxxxxxxx-00000000-22222222-555-|
A|-22222222---------------------------------|-22222222-----------------------|
E|------------------------------------------|--------------------------------|


Play the first and second part of the intro. Play the first part twice instead
of three times

Verse x4

Outro
e|---------------------------------------------------------------------------|
B|---------------------------------------------------------------------------|
G|----7-9-------9-0-9-0-------7-9-------9-0-9-0-------7-9-------9-0-9-0------|
D|-9--7-9--7-9--9-0-9-0--7-9--7-9--7-9--9-0-9-0--7-9--7-9--7-9--9-0-9-0------|
A|-9--5-7--7-9--7-0-7-0--7-9--5-7--7-9--7-0-7-0--7-9--5-7--7-9--7-0-7-0------|
E|-7-------5-7-----------5-7-------5-7-----------5-7-------5-7---------------|

e|---------------------------------------------------------------------------|
B|---------------------------------------------------------------------------|
G|------7-9-------9-0-9-0----------------------------------------------------|
D|-7-9--7-9--7-9--9-0-9-0--7-999-7-------------------------------------------|
A|-7-9--5-7--7-9--7-0-7-0--7-999-7-------------------------------------------|
E|-5-7-------5-7-----------5-777-5-------------------------------------------|


| /  slide up
| \  slide down
| h  hammer-on
| p  pull-off
| ~  vibrato
| +  harmonic
| x  Mute note
===============================================================================
comments
We did not receive enough feedback on this tab! Please rate:
print report bad tab
1 2 3 4 5
1 comment total.
0 reply
justanimrod wrote on December 9 2011, 07:04 pm

Awesome tab. But in my opinion, the Guitar 2 sounds more like this:


e|-------------------------------------------|
B|-------------------------------88888888----|
G|-44444444-77777777-99999999--77777777------|
D|-44444444-77777777-99999999----------------|
A|-------------------------------------------|
E|-------------------------------------------|

I want to post or [tab]
guest
You may want to rate the tab now too:
select rating
Please do not post tabs as comments. Select "correction" instead!