Oops, an error
Loading. Please wait.

Horseshoes And Handgrenades Tab

version 4
version 4

Whole song

Interactive

217 views 1 this week
no commentswrite comment
1 2 3 4 5
please rate
add to favorites
launch autoscroll
font size
0
reset
how to read this tab
guitar tuner
Tab Pro tools
  • play this tab
  • loop segment
  • change instrument
  • show fretboard
  • metronome
Autoscroll
slow
fast
+/-
esc
set tempo
stop
Contributor
Difficulty
novice
-------------------------------------------------------------------------------
                Green Day - Horseshoes And Handgrenades
-------------------------------------------------------------------------------

Tabbed By - cmbully


Tuning – Guitar I-   Standard EADGBe
            Guitar II – Standard EADGBe



Intro – Guitar I
                                                        x3
e|-------------------------------------|--------------------------------------|
B|-------------------------------------|--------------------------------------|
G|--------7-9--9-----------------------|--------7-9--9------------------------|
D|---9--9-7-9--9---7-7---4----4--------|---9--9-7-9--9---7-7---4--------------|
A|---9--9-5-7--7---7-7---4----4--------|---9--9-5-7--7---7-7---4--------------|
E|---7--7--------0-5-5-0-2—-0-2-0------|---7--7--------0-5-5-0-2--------------|



Verse 1 – Guitars I & II
                                                        x2
e|-------------------------------------|
B|-------------------------------------|
G|--------7-9--9-----------------------|
D|---9--9-7-9--9---7-7---4----4--------|
A|---9--9-5-7--7---7-7---4----4--------|
E|---7--7--------0-5-5-0-2—-0-2-0------|



Interlude - Guitar I

e|---------------------------------------------------------------------------|
B|---------------------------------------------------------------------------|
G|---------------------------------------------------------------------------|
D|---------------------------------------------------------------------------|
A|---------------------------------------------------------------------------|
E|---77777777-55555555-44444444-33333----------------------------------------|



Interlude - Guitar II

e|---------------------------------------------------------------------------|
B|---------------------------------------------------------------------------|
G|---44444444-77777777—99999999-12-12-12-12-12-------------------------------|
D|---xxxxxxxx-xxxxxxxx-xxxxxxxx--x--x--x--x--x-------------------------------|
A|---22222222-55555555-77777777-10-10-10-10-10-------------------------------|
E|---------------------------------------------------------------------------|



Verse 2 – Guitars I & II
                                                        x8
e|---------------------------------------------------------------------------|
B|---------------------------------------------------------------------------|
G|--------7-9--9-------------------------------------------------------------|
D|---9--9-7-9--9---7-7---4----4----------------------------------------------|
A|---9--9-5-7--7---7-7---4----4----------------------------------------------|
E|---7--7--------0-5-5-0-2—-0-2-0--------------------------------------------|



Chorus - Guitars I and II

e|-------------------------------------7-7-7-7-7-7-7-7-7-7-7-7-7-------------|
B|---9-9-9-9-9-9-9-9-9-9-9-9-9---------7-7-7-7-7-7-7-7-7-7-7-7-7-------------|
G|---9-9-9-9-9-9-9-9-9-9-9-9-9---------8-8-8-8-8-8-8-8-8-8-8-8-8-------------|
D|---9-9-9-9-9-9-9-9-9-9-9-9-9--7-7-7--9-9-9-9-9-9-9-9-9-9-9-9-9--7-7-7------|
A|---7-7-7-7-7-7-7-7-7-7-7-7-7--7-7-7--9-9-9-9-9-9-9-9-9-9-9-9-9--7-7-7------|
E|------------------------------5-5-5--7-7-7-7-7-7-7-7-7-7-7-7-7--5-5-5------|

e|---------------------------------------------------------------------------|
B|---9-9-9-9-9-9-9-9-9-9-9-9-9-9-9-9-----------------------------------------|
G|---9-9-9-9-9-9-9-9-9-9-9-9-9-9-9-9-----------------------------------------|
D|---9-9-9-9-9-9-9-9-9-9-9-9-9-9-9-9---4-4-4-4-4-4-4-4-4-4-4-4---------------|
A|---7-7-7-7-7-7-7-7-7-7-7-7-7-7-7-7---4-4-4-4-4-4-4-4-4-4-4-4---------------|
E|-------------------------------------2-2-2-2-2-2-2-2-2-2-2-2---------------|



Verse 2 Again



Chorus Again



Bridge

e|---------------------------------------------------------------------------|
B|---------------------------------------------------------------------------|
G|---------------------------------------------------------------------------|
D|---999-7---999-7---999-7---999-7-\-----------------------------------------|
A|---999-7---999-7---999-7---999-7-\-----------------------------------------|
E|---777-5---777-5---777-5---777-5-\-----------------------------------------|



Verse 1 Again x2



Then…


Guitar I
                                                        x3
e|---------------------------------------------------------------------------|
B|---------------------------------------------------------------------------|
G|---------------------------------------------------------------------------|
D|---------------------------------------------------------------------------|
A|---------------------------------------------------------------------------|
E|---77777777-55555555-44444444-33333----------------------------------------|


Guitar II
                                           x3
e|---------------------------------------------------------------------------|
B|---------------------------------------------------------------------------|
G|---44444444-77777777—99999999-12-12-12-12-12-------------------------------|
D|---xxxxxxxx-xxxxxxxx-xxxxxxxx--x--x--x--x--x-------------------------------|
A|---22222222-55555555-77777777-10-10-10-10-10-------------------------------|
E|---------------------------------------------------------------------------|



Then…


Guitar I
                                                        
e|---------------------------------------------------------------------------|
B|---------------------------------------------------------------------------|
G|---------------------------------------------------------------------------|
D|---------------------------------------------------------------------------|
A|------------------------------5-5-5-5--------------------------------------|
E|---77777777-55555555-44444444-3-3-3-3--------------------------------------|


Guitar II
                                           
e|---------------------------------------------------------------------------|
B|---------------------------------------------------------------------------|
G|---44444444-77777777—99999999----------------------------------------------|
D|---xxxxxxxx-xxxxxxxx-xxxxxxxx-5-5-5-5--------------------------------------|
A|---22222222-55555555-77777777-5-5-5-5--------------------------------------|
E|------------------------------3-3-3-3--------------------------------------|



Last Verse - Guitars I & II
                                                        x6
e|---------------------------------------------------------------------------|
B|---------------------------------------------------------------------------|
G|--------7-9--9-------------------------------------------------------------|
D|---9--9-7-9--9---7-7---4----4----------------------------------------------|
A|---9--9-5-7--7---7-7---4----4----------------------------------------------|
E|---7--7--------0-5-5-0-2—-0-2-0--------------------------------------------|



Last Chorus – Guitars I & II
                                           x2
e|---------------------------------------------------------------------------|
B|---------------------------------------------------------------------------|
G|------7--9-9------------9-9-----------7--9-9-----------9-9-----------------|
D|---9--7--9-9---7--9-9---9-9---7--9----7--9-9--7--9-9---9-9-----------------|
A|---9--5--7-7---7--9-9---7-7---7--9----5--7-7--7--9-9---7-7-----------------|
E|---7-----------5--7-7---------5--7------------5--7-7-----------------------|


e|---------------------------------------------------------------------------|
B|---------------------------------------------------------------------------|
G|---------------------------------------------------------------------------|
D|---9-9-9--7----------------------------------------------------------------|
A|---9-9-9--7----------------------------------------------------------------|
E|---7-7-7--5----------------------------------------------------------------|




That’s it, hope you enjoy.


Cmbully



Legend:

| /  slide up
| \  slide down
| h  hammer-on
| p  pull-off   
| ~  vibrato
| +  harmonic
| x  Mute note
===============================================================================
comments
We did not receive enough feedback on this tab! Please rate:
print report bad tab
1 2 3 4 5
I want to post or [tab]
guest
You may want to rate the tab now too:
select rating
Please do not post tabs as comments. Select "correction" instead!