Oops, an error
Loading. Please wait.

Horseshoes And Handgrenades Tab

version 5
version 5

Whole song

Interactive

325 views 3 this week
no commentswrite comment
1 2 3 4 5
please rate
add to favorites
launch autoscroll
font size
0
reset
how to read this tab
guitar tuner
Tab Pro tools
  • play this tab
  • loop segment
  • change instrument
  • show fretboard
  • metronome
Autoscroll
slow
fast
+/-
esc
set tempo
stop
Contributor
Difficulty
intermediate
-------------------------------------------------------------------------------
                  green day - horseshoes and handgrenades
-------------------------------------------------------------------------------
Tabbed by: wattsy21
Email: wattsits@live.com

Tuning: standard (eadgbe)
sorry this may be confusing but it's my first tab
  main riff
e|--------------------------------------------------------------------------|
B|--------------------------------------------------------------------------|
G|--------------------------------------------------------------------------|
D|-----7-9-9--x-----x-------------------------------------------------------|
A|-9-9-5-7-7--x-7-7-x--4--4-4-4---------------------------------------------|
E|-7-7--------x-5-5-x--2--2-2-2---------------------------------------------|
  bit after main riff for guitar 1
e|--------------------------------------------------------------------------|
B|--------------------------------------------------------------------------|
G|--------------------------------------------------------------------------|
D|--------------------------------------------------------------------------|
A|-22222222--55555555-77777777-10-10-10-10-10-10-10-10----------------------|
E|--------------------------------------------------------------------------|
 bit after main riff for guitar 2
e|--------------------------------------------------------------------------|
B|--------------------------------------------------------------------------|
G|--------------------------------------------------------------------------|
D|--------------------------------------------------------------------------|
A|--------------------------------------------------------------------------|
E|-77777777-55555555-44444444-33333333--------------------------------------|
  chorus
e|---------------------------------------------------------------------------|
B|---------------------------------------------------------------------------|
G|---------------------------------------------------------------------------|
D|-99999999999999--------------------------99999999999999-x------------------|
A|-77777777777777-7-7--99999999999999-7-7--77777777777777-x-4444444444444444-|
E|----------------5-5--77777777777777-5-5-----------------x-2222222222222222-|
  bit played after the chorus is played for the second time
e|--------------------------------------------------------------------------|
B|--------------------------------------------------------------------------|
G|--------------------------------------------------------------------------|
D|--------------------------------------------------------------------------|
A|-9997---------------------------------------------------------------------|
E|-7775---------------------------------------------------------------------|
  outro         on eighth time play this:
e|-------------|------------------------------------------------------------|
B|-------------|------------------------------------------------------------|
G|-------------|------------------------------------------------------------|
D|-------9-9-x-|------------------------------------------------------------|
A|-9-9-7-7-7-x-|-9997-------------------------------------------------------|
E|-7-7-5-----x-|-7775-------------------------------------------------------|

order:
main riff x 6
bit played after main riff x1
main riff x 8
chorus x 1
main riff x 8
chorus x 1
bit after the chorus has been played for the second time x 4
main riff x 4
bit played after main riff x 4
main riff x 6
outro x 8
hope you think it sounds right! all tabbed by ear.
any tab requests (songs by green day) mail me
thanks!
comments
We did not receive enough feedback on this tab! Please rate:
print report bad tab
1 2 3 4 5
I want to post or [tab]
guest
You may want to rate the tab now too:
select rating
Please do not post tabs as comments. Select "correction" instead!