Oops, an error
Loading. Please wait.
We have an official Horseshoes And Handgrenades tab made by UG professional guitarists. Check out the tab »
×

Horseshoes And Handgrenades tab

28 views 3 this week
no commentswrite comment
1 2 3 4 5
2 more votes to show rating
add to favorites
×
Save as Personal and add changes to this tab that will be seen only by you. Learn more ›
×
You can save this tab as Personal to edit and correct it or add notes. All changes will be seen only by you. Learn more »
launch autoscroll
font size
0
reset
how to read this tab
guitar tuner
backing track
0:00
0:00
edit
Autoscroll
slow
fast
+/-
esc
set tempo
stop
About this tab version
Tab is full complete and has lyrics. Was this info helpful? Yes No
HORSESHOES AND HANDGRENADES 100 - GREEN DAY

(Intro)
e|-------------------------------------------------------------------|
B|-------------------------------------------------------------------|
G|--------7--9--x-----------------------7--9--x----------------------|
D|--9--x--7--9--x--7-7-x--4-4-4---9--x--7--9--x--7-7-x--4--4--4------|
A|--9--x--5--7--x--7-7-x--4-4-4---9--x--5--7--x--7-7-x--4--4--4------|
E|--7--x-----------5-5-x--2-2-2---7--x-----------5-5-x--2--2--2------|

e|-----------------------------------------------------------------|
B|-----------------------------------------------------------------|
G|--------7--9--x---------------------7--9--x----------------------|
D|--9--x--7--9--x--7-7--4-4-4---9--x--7--9--x--7-7-x--4------------|
A|--9--x--5--7--x--7-7--4-4-4---9--x--5--7--x--7-7-x--4------------|
E|--7--x-----------5-5--2-2-2---7--x-----------5-5-x--2------------|

e|-------------------------------------------------------------------|
B|-------------------------------------------------------------------|
G|--------7--9--x-----------------------7--9--x----------------------|
D|--9--x--7--9--x--7-7-x--4-4-4---9--x--7--9--x--7-7-x--4--4--4------|
A|--9--x--5--7--x--7-7-x--4-4-4---9--x--5--7--x--7-7-x--4--4--4------|
E|--7--x-----------5-5-x--2-2-2---7--x-----------5-5-x--2--2--2------|

e|--------------------------------------------------------------------------|
B|--------------------------------------------------------------------------|
G|--4-4-4-4-4-4-4-4--7-7-7-7-7-7-7-7--9-9-9-9-9-9-9-9--12-12-12-12-12-------|
D|--------------------------------------------------------------------------|
A|--------------------------------------------------------------------------|
E|--------------------------------------------------------------------------|
                                                      I’M NOT FUCKING AROUND
(Verse)
e|-------------------------------------------------------------------|
B|-------------------------------------------------------------------|
G|--------7--9--x-----------------------7--9--x----------------------|
D|--9--x--7--9--x--7-7-x--4-4-4---9--x--7--9--x--7-7-x--4--4--4------|
A|--9--x--5--7--x--7-7-x--4-4-4---9--x--5--7--x--7-7-x--4--4--4------|
E|--7--x-----------5-5-x--2-2-2---7--x-----------5-5-x--2--2--2------|
                 I THINK I’M 
                  COMING OUT

e|--------------------------------------------------------------------|
B|--------------------------------------------------------------------|
G|--------7--9--x------------------------7--9--x----------------------|
D|--9--x--7--9--x--7-7-x--4-4-4----9--x--7--9--x--7-7-x--4--4--4------|
A|--9--x--5--7--x--7-7-x--4-4-4----9--x--5--7--x--7-7-x--4--4--4------|
E|--7--x-----------5-5-x--2-2-2----7--x-----------5-5-x--2--2--2------|
ALL THE DECEIVERS THE CHEATERS  I THINK WE GOT A BLEEDER RIGHT NOW 

e|-------------------------------------------------------------------|
B|-------------------------------------------------------------------|
G|--------7--9--x-----------------------7--9--x----------------------|
D|--9--x--7--9--x--7-7-x--4-4-4---9--x--7--9--x--7-7-x--4--4--4------|
A|--9--x--5--7--x--7-7-x--4-4-4---9--x--5--7--x--7-7-x--4--4--4------|
E|--7--x-----------5-5-x--2-2-2---7--x-----------5-5-x--2--2--2------|
            WANT YOU TO SLAP                 WANT YOU TO KNOCK ME OUT
            ME AROUND

e|-----------------------------------------------------------------|
B|-----------------------------------------------------------------|
G|--------7--9--x---------------------7--9--x----------------------|
D|--9--x--7--9--x--7-7--4-4-4---9--x--7--9--x--7-7-x--4--4--4------|
A|--9--x--5--7--x--7-7--4-4-4---9--x--5--7--x--7-7-x--4--4--4------|
E|--7--x-----------5-5--2-2-2---7--x-----------5-5-x--2--2--2------|
                               WELL YOU MISSED ME KISSED ME
                               NOW YOU BETTER KICK ME

e|----------------------------------|
B|----------------------------------|
G|--------7--9--x-------------------|
D|--9--x--7--9--x--7-7--4-4-4-------|
A|--9--x--5--7--x--7-7--4-4-4-------|
E|--7--x-----------5-5--2-2-2-------|
   DOWN

(Chorus)
e|-------------------------------------------------------------------------------|
B|-------------------------------------------------------------------------------|
G|---9-9-9-9--9-9-9-9--9-9-9-9-9-------------------------------------------------|
D|---9-9-9-9--9-9-9-9--9-9-9-9-9--7-7-7--9-9-9-9--9-9-9-9--9-9-9-9-9---7-7-7-----|
A|---7-7-7-7--7-7-7-7--7-7-7-7-7--7-7-7--9-9-9-9--9-9-9-9--9-9-9-9-9---7-7-7-----|
E|--------------------------------5-5-5--7-7-7-7--7-7-7-7--7-7-7-7-7---5-5-5-----|
    MAYBE YOU’RE THE RUNNER UP   FIRST ON TO LOST THE RACE
    BUT THE
   
e|-------------------------------------------------------------------------------|
B|-------------------------------------------------------------------------------|
G|---9-9-9-9--9-9-9-9--9-9-9-9--9-9-9--------------------------------------------|
D|---9-9-9-9--9-9-9-9--9-9-9-9--9-9-9---4-4-4-4--4-4-4-4--4-4-4-4-4--------------|
A|---7-7-7-7--7-7-7-7--7-7-7-7--7-7-7---4-4-4-4--4-4-4-4--4-4-4-4-4--------------|
E|--------------------------------------2-2-2-2--2-2-2-2--2-2-2-2-2--------------|
    ALMOST ONLY REALLY COUNTS IN       HORSESHOES AND  I’M GONNA BURN IT ALL
                                       HANDGRENADES 

(Verse)
e|-------------------------------------------------------------------|
B|-------------------------------------------------------------------|
G|--------7--9--x-----------------------7--9--x----------------------|
D|--9--x--7--9--x--7-7-x--4-4-4---9--x--7--9--x--7-7-x--4--4--4------|
A|--9--x--5--7--x--7-7-x--4-4-4---9--x--5--7--x--7-7-x--4--4--4------|
E|--7--x-----------5-5-x--2-2-2---7--x-----------5-5-x--2--2--2------|
   DOWN           I’M GONNA RIP
                  IT OUT

e|-------------------------------------------------------------------|
B|-------------------------------------------------------------------|
G|--------7--9--x-----------------------7--9--x----------------------|
D|--9--x--7--9--x--7-7-x--4-4-4---9--x--7--9--x--7-7-x--4--4--4------|
A|--9--x--5--7--x--7-7-x--4-4-4---9--x--5--7--x--7-7-x--4--4--4------|
E|--7--x-----------5-5-x--2-2-2---7--x-----------5-5-x--2--2--2------|
 WELL EVERYTHING YOU EMPLOY      NOW            SO DON’T YOU FUCK ME
 WAS MEANT FOR ME TO DESTROY                    AROUND
 TO THE GROUND

e|-------------------------------------------------------------------|
B|-------------------------------------------------------------------|
G|--------7--9--x-----------------------7--9--x----------------------|
D|--9--x--7--9--x--7-7-x--4-4-4---9--x--7--9--x--7-7-x--4--4--4------|
A|--9--x--5--7--x--7-7-x--4-4-4---9--x--5--7--x--7-7-x--4--4--4------|
E|--7--x-----------5-5-x--2-2-2---7--x-----------5-5-x--2--2--2------|
          BECAUSE I’LL SHOOT YOU DOWN

e|-------------------------------------------------------------------|
B|-------------------------------------------------------------------|
G|--------7--9--x-----------------------7--9--x----------------------|
D|--9--x--7--9--x--7-7-x--4-4-4---9--x--7--9--x--7-7-x--4--4--4------|
A|--9--x--5--7--x--7-7-x--4-4-4---9--x--5--7--x--7-7-x--4--4--4------|
E|--7--x-----------5-5-x--2-2-2---7--x-----------5-5-x--2--2--2------|
   I’M GONNA DRINK FIGHT AND                    ALL THE TIME NOW
   FUCK AND I’M PUSHING THE LUCK

(Chorus)
e|-------------------------------------------------------------------------------|
B|-------------------------------------------------------------------------------|
G|---9-9-9-9--9-9-9-9--9-9-9-9-9-------------------------------------------------|
D|---9-9-9-9--9-9-9-9--9-9-9-9-9--7-7-7--9-9-9-9--9-9-9-9--9-9-9-9-9---7-7-7-----|
A|---7-7-7-7--7-7-7-7--7-7-7-7-7--7-7-7--9-9-9-9--9-9-9-9--9-9-9-9-9---7-7-7-----|
E|--------------------------------5-5-5--7-7-7-7--7-7-7-7--7-7-7-7-7---5-5-5-----|
    MAYBE YOU’RE THE RUNNER UP   FIRST ON TO LOST THE RACE
    BUT THE
   
e|-------------------------------------------------------------------------------|
B|-------------------------------------------------------------------------------|
G|---9-9-9-9--9-9-9-9--9-9-9-9--9-9-9--------------------------------------------|
D|---9-9-9-9--9-9-9-9--9-9-9-9--9-9-9---4-4-4-4--4-4-4-4--4-4-4-4-4-4------------|
A|---7-7-7-7--7-7-7-7--7-7-7-7--7-7-7---4-4-4-4--4-4-4-4--4-4-4-4-4-4------------|
E|--------------------------------------2-2-2-2--2-2-2-2--2-2-2-2-2-2------------|
    ALMOST ONLY REALLY COUNTS IN       HORSESHOES AND  HANDGRENADES 

(Bridge)
e|------------------------------------------------------------------------------|
B|------------------------------------------------------------------------------|
G|------------------------------------------------------------------------------|
D|--9--9--9--7--------9--9--9--7---------9--9--9--7----9--9--9--7---------------|
A|--9--9--9--7--------9--9--9--7---------9--9--9--7----9--9--9--7---------------|
E|--7--7--7--5--------7--7--7--5---------7--7--7--5----7--7--7--5---------------|
   DEMOLITION        SELF DESTRUCTION   WANT TO       THIS AGE OLD CONTRADITION
                                        ANNIHILATE 

(Interlude)
e|-------------------------------------------------------------------|
B|-------------------------------------------------------------------|
G|--------7--9--x-----------------------7--9--x----------------------|
D|--9--x--7--9--x--7-7-x--4-4-4---9--x--7--9--x--7-7-x--4--4--4------|
A|--9--x--5--7--x--7-7-x--4-4-4---9--x--5--7--x--7-7-x--4--4--4------|
E|--7--x-----------5-5-x--2-2-2---7--x-----------5-5-x--2--2--2------|

e|-------------------------------------------------------------------|
B|-------------------------------------------------------------------|
G|--------7--9--x-----------------------7--9--x----------------------|
D|--9--x--7--9--x--7-7-x--4-4-4---9--x--7--9--x--7-7-x--4--4--4------|
A|--9--x--5--7--x--7-7-x--4-4-4---9--x--5--7--x--7-7-x--4--4--4------|
E|--7--x-----------5-5-x--2-2-2---7--x-----------5-5-x--2--2--2------|

e|-------------------------------------------------------------------------------|
B|-------------------------------------------------------------------------------|
G|--4-4-4-4-4-4-4-4--7-7-7-7-7-7-7-7--9-9-9-9-9-9-9-9--12-12-12-12-12-12-12-12---|
D|-------------------------------------------------------------------------------|
A|-------------------------------------------------------------------------------|
E|-------------------------------------------------------------------------------|

e|-------------------------------------------------------------------------------|
B|-------------------------------------------------------------------------------|
G|--4-4-4-4-4-4-4-4--7-7-7-7-7-7-7-7--9-9-9-9-9-9-9-9--12-12-12-12-12-12-12-12---|
D|-------------------------------------------------------------------------------|
A|-------------------------------------------------------------------------------|
E|-------------------------------------------------------------------------------|

(Verse)
e|-------------------------------------------------------------------------------|
B|-------------------------------------------------------------------------------|
G|--4-4-4-4-4-4-4-4--7-7-7-7-7-7-7-7--9-9-9-9-9-9-9-9--12-12-12-12-12-12-12-12---|
D|-------------------------------------------------------------------------------|
A|-------------------------------------------------------------------------------|
E|-------------------------------------------------------------------------------|
  DEMOLITION        SELF DESTRUCTION WANT TO ANNILIATE  THIS AGE OLDCONTRADICTION

e|-------------------------------------------------------------------------------|
B|-------------------------------------------------------------------------------|
G|--4-4-4-4-4-4-4-4--7-7-7-7-7-7-7-7--9-9-9-9-9-9-9-9---12-12-12-----------------|
D|-------------------------------------------------------------------------------|
A|-------------------------------------------------------------------------------|
E|-------------------------------------------------------------------------------|
  DEMOLITION        SELF DESTRUCTION WANT TO ANNILIATE  THIS OLD AGE

(Outro)
e|-------------------------------------------------------------------|
B|-------------------------------------------------------------------|
G|--------7--9--x-----------------------7--9--x----------------------|
D|--9--x--7--9--x--7-7-x--4-4-4---9--x--7--9--x--7-7-x--4--4--4------|
A|--9--x--5--7--x--7-7-x--4-4-4---9--x--5--7--x--7-7-x--4--4--4------|
E|--7--x-----------5-5-x--2-2-2---7--x-----------5-5-x--2--2--2------|
                                               I’M NOT FUCKING 

e|-------------------------------------------------------------------|
B|-------------------------------------------------------------------|
G|--------7--9--x-----------------------7--9--x----------------------|
D|--9--x--7--9--x--7-7-x--4-4-4---9--x--7--9--x--7-7-x--4--4--4------|
A|--9--x--5--7--x--7-7-x--4-4-4---9--x--5--7--x--7-7-x--4--4--4------|
E|--7--x-----------5-5-x--2-2-2---7--x-----------5-5-x--2--2--2------|
   AROUND         I THINK I’M                          WELL ALL THE
                  COMING OUT

e|-------------------------------------------------------------------|
B|-------------------------------------------------------------------|
G|--------7--9--x-----------------------7--9--x----------------------|
D|--9--x--7--9--x--7-7-x--4-4-4---9--x--7--9--x--7-7-x--4--4--4------|
A|--9--x--5--7--x--7-7-x--4-4-4---9--x--5--7--x--7-7-x--4--4--4------|
E|--7--x-----------5-5-x--2-2-2---7--x-----------5-5-x--2--2--2------|
   HATE  I’M A TRAITOR IN A PAIR  EIGHT NOW     I’M NOT FUCKING
                OF CHUCK TAYLORS 

e|-------------------------------------------------------------------|
B|-------------------------------------------------------------------|
G|--------7--9--x-----------------------7--9--x----------------------|
D|--9--x--7--9--x--7-7-x--4-4-4---9--x--7--9--x--7-7-x--4--4--4------|
A|--9--x--5--7--x--7-7-x--4-4-4---9--x--5--7--x--7-7-x--4--4--4------|
E|--7--x-----------5-5-x--2-2-2---7--x-----------5-5-x--2--2--2------|

            
            
Suggest correction
Creating personal tab
Creating personal tab
You can edit any tab online and save it as your Personal.

You can edit, replace or remove any tab part or add personal notes – all changes will be seen only by you.

Personal tabs can be accessed anytime from any device, even offline.
Learn more »
Give kudos to tab author, rate the tab!
1 2 3 4 5
comments
print report bad tab
guest
You may want to rate the tab now too:
select rating
Wanna post a correction for this tab? Suggest correction