Oops, an error
Loading. Please wait.

I Want To Be Alone Tab

version 1
version 1

Solo

Whole song

Interactive

2,103 views 1 this week
2 commentsread comments
1 2 3 4 5
excellent!
x 3
add to favorites
launch autoscroll
font size
0
reset
how to read this tab
guitar tuner
Autoscroll
slow
fast
+/-
esc
set tempo
stop
Help us to improve Ultimate-Guitar.com Take our survey!
×
Tabbed by: Sam Champness
Email:

Tuning:

e|---------------------10b--10--12--12b--12b--12-12b--12--10-12-10-|
B|----10-10---13b-13b----------------------------------------------|
G|-12--------------------------------------------------------------|
D|-----------------------------------------------------------------|
A|-----------------------------------------------------------------|
E|-----------------------------------------------------------------|

e|-----10---12-12b-----12--10-12-10------10--10---17-17-----------|
B|-12--------------------------------12---------------------------|
G|----------------------------------------------------------------|
D|----------------------------------------------------------------|
A|----------------------------------------------------------------|
E|----------------------------------------------------------------|

   ~~~~~~~~~~~~~~~~~~~~~~(Shredding)
e|-17-\-15-\-14-\-12-\-10------------13-12-10----------------------|
B|---------------------------------------------13-12-10------------|
G|-------------------------------------------------------13-12-10--|
D|-----------------------------------------------------------------|
A|-----------------------------------------------------------------|
E|-----------------------------------------------------------------|

e|----------------------------------10-10------10-10------10-10---|
B|----------------------------------10-10------10-10------10-10---|
G|-10-10-10-10-10--12—10--12b---12b--------12b--------12b---------|
D|----------------------------------------------------------------|
A|----------------------------------------------------------------|
E|----------------------------------------------------------------|

e|-----10-10------------------------------------------------------|
B|-----10-10------------------------------------------------------|
G|-12b----------12b-12b-------------------------------------------|
D|----------------------------------------------------------------|
A|----------------------------------------------------------------|
E|----------------------------------------------------------------|

====================================================================
Suggest correction
Give kudos to tab author, rate the tab!
1 2 3 4 5
comments
print report bad tab
2 comments total.
0 reply
XxGibsonSGxX 240 wrote on September 19 2006, 08:57 pm

Once again, you never cease to surprise me. Sounds excellent

0 reply
steve45 72 wrote on November 13 2006, 09:17 am

Hey........ Oh.. Yeah... i love Green Day, and i love YOU too for this tab! thanks!

guest
You may want to rate the tab now too:
select rating
Please do not post tabs as comments. Select "correction" instead!