Oops, an error
Loading. Please wait.

I Want To Be On Tv Bass Tab

version 2
version 2

Whole song

184 views 1 this week
no commentswrite comment
1 2 3 4 5
3 more votes to show rating
add to favorites
launch autoscroll
font size
0
reset
guitar tuner
Autoscroll
slow
fast
+/-
esc
set tempo
stop
Help us to improve Ultimate-Guitar.com Take our survey!
×
Author
Band:  Green Day
Song:  I Want To Be On TV
Album:  Shenanigans
Bassist:  Mike Dirnt
Tuning: E A D G

h-means Hammer on   ~:  Let note ring

Intro/Verse

  Bass comes in about 3 seconds in.
G----------------------------------|
D----------------------------------|
A----1h3-1h3-1h3-1h3---11111-------|   Do this about 7 times, it speeds up when Bille start singing
E----------------------------------|

Chorus

G------------------------------------------|
D------------------------------------------| Do this twice
A----------------2-2-2-2—333333-4-4-5-5----|
E---5-5-5-5--------------------------------|


Verse
G-----------------------------------|
D-----------------------------------|   Back to verse, about 4 Times
A----1h3-1h3-1h3-1h3---11111--------|
E-----------------------------------|


Chorus
G---------------------------------------------|
D---------------------------------------------|
A----------------2-2-2-2—3-3-4-4-5-5----------|   2x
E---5-5-5-5-----------------------------------|


Verse
G-------------------------------------|
D-------------------------------------|
A-------------------------------------|  4x
E------1h3-1h3-1h3-1h3-1-1-1----------|


Chorus
G-------------------------------------------|
D-------------------------------------------|
A----------------2-2-2-2—3-3-4-4-5-5--------|
E---5-5-5-5---------------------------------|

Ending

G------------------------|
D------------------------|   4x
A----1h3-1h3-1h3-1h3~----|
E------------------------|


G-------------|
D-------------|
A--1h3~~~-----|
E-------------|
Suggest correction
Give kudos to tab author, rate the tab!
1 2 3 4 5
comments
print report bad tab
guest
You may want to rate the tab now too:
select rating
Wanna post a correction for this tab? Suggest correction