Oops, an error
Loading. Please wait.

I Was There Bass Tab

version 2
version 2

Whole song

Interactive

349 views 1 this week
no commentswrite comment
1 2 3 4 5
please rate
add to favorites
launch autoscroll
font size
0
reset
guitar tuner
Autoscroll
slow
fast
+/-
esc
set tempo
stop
Help us to improve Ultimate-Guitar.com Take our survey!
×
Contributor
bdouts 136
Green Day 1039/Smoothed Out Slappy Hour
I Was There

Tune EADG

Intro
---------------------------------------------------------------------]
---------------------3-2-0----------------------53-----3-2-0---------]
--3-3-3333-33-333--1-------3-2-1/3--3-3-3333-335---3--1------3-2-1/3-]
---------------------------------------------------------------------]

Verse
--------------------------------------------------------------------------]
--------------------------------------------------------------------------]
--3-3-3333-33-3333-1-1-1111-11-1111-3-3-3333-33-3333-1-1-1111-11-1111-----]
--------------------------------------------------------------------------]
Fill
--------------------------------------------------------------------------]
--------------53----3-2-0-------------------------------------------------]
--3-3-3333-335--3-1-------3-2-1-------------------------------------------]
--------------------------------------------------------------------------]

 1st chorus
--------------------------------------------------------------------------|
---3-3-33---------3-3-33----------------------------------------53--------|
----------3-3-3-3--------3-3-3-3--1-1111111111111111-3-3-3333-335--3------|
--------------------------------------------------------------------------|

-------------------------------------------------------------------------]
---3-3-33----------3-3-33------------------------------------------------]
-----------3-3-3-3--------3-3-3-3--1-1111111111111111-3-3-3333-33-3333---]
-------------------------------------------------------------------------]

Then Intro Riff
Verse
2nd Chorus
---------------------------------------------------------------------------|
---3-3-33---------3-3-33-----------------------------------------53--------|
----------3-3-3-3--------3-3-3-3--1-1111111111111111-3-3-3333-335--3-------|
---------------------------------------------------------------------------|

--------------------------------------------------------------------------]
---3-3-33---------3-3-33-----------3-2-0----------------------------------]
----------3-3-3-3--------3-3-3-3--1------3-2-1/3-3-3-3333-33-3333---------]
--------------------------------------------------------------------------]

Intro Riff

Fill 2
-------------------------------------------------------------------------]
-------------------------------------------------------------------------]
---3-3--3-3--1-1--1-1--3-3--3-3--1111111111111111------------------------]
-------------------------------------------------------------------------]

Bridge
-------------------------------------------------------------------------]
-------------------------------------------------------------------------]
---5-55-555--3-33-333-5-55-555--3-33-333--5-55-555--3-33-333-------------]
-------------------------------------------------------------------------]

Verse

3rd Chorus

Outro
----------------------------------------------------------------5-5--------]
-------------3-3h5555---------------53----3-2-0----------------------------]
------------3--------------------335--3--1------3-2-1-3-3-3333-3-3---------]
---1-1-1111-------------1-1-1111----------------------------------------1~-]
comments
We did not receive enough feedback on this tab! Please rate:
print report bad tab
1 2 3 4 5
I want to post or [tab]
guest
You may want to rate the tab now too:
select rating
Please do not post tabs as comments. Select "correction" instead!