Oops, an error
Loading. Please wait.

I Was There Bass Tab

version 3
version 3

Whole song

Interactive

1,764 views 1 this week
no commentswrite comment
1 2 3 4 5
excellent!
x 5
add to favorites
launch autoscroll
font size
0
reset
guitar tuner
Autoscroll
slow
fast
+/-
esc
set tempo
stop
Help us to improve Ultimate-Guitar.com Take our survey!
×
----------------------------------------------------------------------------
                            I Was There-Green Day
----------------------------------------------------------------------------
Album:1,039/Smoothed Out Slappy Hours
Tuning:Standard

Tabbed by:WARNINGnimrod12
Email:WARNINGnimrod182@aim.com



  INTRO

   G|--------------------------------------------------|
   D|----------------------------------3--2--0---------|
   A|---3--3--3-3-3-3--3-3-3--3-3-3-1-----------3--1---|
   E|--------------------------------------------------|

   G|--------------------------------------------------|
   D|-----------------2-3-5-3-2-0------3--2--0---------|
   A|---3--3--0-3--3--------------3-1-----------3--1---|
   E|--------------------------------------------------|



  VERSE

   G|-------------------------------------------------------------|
   D|-------------------------------------------------------------|
   A|---3--3--3-3-3-3--3-3-3--3-3-3-1--1--1-1-1-1--1-1-1--1-1-1---| x3
   E|-------------------------------------------------------------|

   G|---------------------------------------------------|
   D|------------------2-3-5-3-2-0------3--2--0---------|
   A|---3--3--3-3-3-3--------------3-1-----------3--1---|
   E|---------------------------------------------------|



  CHORUS

   G|-------------------------------------------------------------|
   D|---3--3--3-3-3-----------------3--3--3-3-3-------------------|
   A|---------------3--3-3--3-3-3-3-------------3--3-3--3-3-3-3---|
   E|-------------------------------------------------------------|

   G|--------------------------------------------------------------|
   D|----------------------------------------------2-3-5-3-2-0-----|
   A|---1--1--1-1-1-1--1-1--1-1-1-1-3--3--3-3-3-3--------------3---|
   E|--------------------------------------------------------------|

   G|-------------------------------------------------------------|
   D|---3--3--3-3-3-----------------3--3--3-3-3-------------------|
   A|---------------3--3-3--3-3-3-3-------------3--3-3--3-3-3-3---|
   E|-------------------------------------------------------------|

   G|-------------------------------------------------------------|
   D|-------------------------------------------------------------|
   A|---1--1--1-1-1-1--1-1--1-1-1-1-3--3--3-3-3-3--3-3--3-3-3-3---|
   E|-------------------------------------------------------------|


  
  INTRO

  VERSE 2(Same as VERSE 1)

  CHORUS 2

   G|-------------------------------------------------------------|
   D|---3--3--3-3-3-----------------3--3--3-3-3-------------------|
   A|---------------3--3-3--3-3-3-3-------------3--3-3--3-3-3-3---|
   E|-------------------------------------------------------------|

   G|--------------------------------------------------------------|
   D|----------------------------------------------2-3-5-3-2-0-----|
   A|---1--1--1-1-1-1--1-1--1-1-1-1-3--3--3-3-3-3--------------3---|
   E|--------------------------------------------------------------|

   G|-------------------------------------------------------------|
   D|---3--3--3-3-3-----------------3--3--3-3-3-------------------|
   A|---------------3--3-3--3-3-3-3-------------3--3-3--3-3-3-3---|
   E|-------------------------------------------------------------|

   G|-------------------------------------------------|
   D|------3--2--0------------------------------------|
   A|---1-----------3--1-3-3--3-3-3-3--3-3--3-3-3-3---|
   E|-------------------------------------------------|



  FILL 1
 
   G|--------------------------------------------------|
   D|----------------------------------3--2--0---------|
   A|---3--3--3-3-3-3--3-3-3--3-3-3-1-----------3--1---|
   E|--------------------------------------------------|

   G|---------------------------------------------------|
   D|------------------2-3-5-3-2-0------3--2--0---------|
   A|---3--3--3-3-3-3--------------3-1-----------3--1---|
   E|---------------------------------------------------|



  FILL 2

  G|-----------------------------------------------------------------------|
  D|-----------------------------------------------------------------------|
  A|---3-3---3-3---1-1---1-1---3-3---3-3---1-1-1-1-1-1-1-1-1-1-1-1-1-1-1-1-|
  E|-----------------------------------------------------------------------|



  (GUITAR FILL)

  BRIDGE x4
 
   G|---------------------------------------------|
   D|---------------------------------------------|
   A|---5--5--5-5-3--3--3-3-5--5--5-5-3--3--3-3---|
   E|---------------------------------------------|



  VERSE 3(Also same as VERSE 1)

  CHORUS 3

   G|-------------------------------------------------------------|
   D|---3--3--3-3-3-----------------3--3--3-3-3-------------------|
   A|---------------3--3-3--3-3-3-3-------------3--3-3--3-3-3-3---|
   E|-------------------------------------------------------------|

   G|--------------------------------------------------------------|
   D|----------------------------------------------2-3-5-3-2-0-----|
   A|---1--1--1-1-1-1--1-1--1-1-1-1-3--3--3-3-3-3--------------3---|
   E|--------------------------------------------------------------|

   G|-------------------------------------------------------------|
   D|---3--3--3-3-3-----------------3--3--3-3-3-------------------|
   A|---------------3--3-3--3-3-3-3-------------3--3-3--3-3-3-3---|
   E|-------------------------------------------------------------|

   G|--------------------------------------------------------------|
   D|----------------------------------------------2-3-5-3-2-0-----|
   A|---1--1--1-1-1-1--1-1--1-1-1-1-3--3--3-3-3-3--------------3---|
   E|--------------------------------------------------------------|



  OUTRO

   G|------------------2--3-2--------------------------------|
   D|---3--3--3-3-3-----------3--3--3-3-3----2-3-5-3-2-0-----|
   A|---------------3---------------------3--------------3---|
   E|--------------------------------------------------------|

   G|---------------------------------5----5------|
   D|------3--2--0--------------------------------|
   A|---1-----------3--1-3--3--0-3--3----3----3---|
   E|---------------------------------------------|

   G|------------------2--3-2--------------------------------|
   D|---3--3--3-3-3-----------3--3--3-3-3----2-3-5-3-2-0-----|
   A|---------------3---------------------3--------------3---|
   E|--------------------------------------------------------|

   G|---------------------------------5----5-----------------------|
   D|------3--2--0-------------------------------------------------|
   A|---1-----------3--1-3--3--0-3--3----3----3--------------------|
   E|--------------------------------------------1~~~~~~~~~~~~~~---|

  *The two 5's on the G string may be slapped, I'm not sure. It sounds good
picked or slapped.



   ORDER:

   INTRO
   VERSE
   CHORUS
   INTRO 2
   VERSE 2
   CHORUS 2
   FILL 
   FILL 2
   GUITAR FILL
   BRIDGE x4
   VERSE 3
   CHORUS 3
   OUTRO

   

   
Suggest correction
comments
print report bad tab
guest
You may want to rate the tab now too:
select rating
Wanna post a correction for this tab? Suggest correction