Oops, an error
Loading. Please wait.
We have an official In The End tab made by UG professional guitarists. Check out the tab »
×
142 views 1 this week
1 commentread comment
1 2 3 4 5
x 3
add to favorites
×
Save as Personal and add changes to this tab that will be seen only by you. Learn more ›
×
You can save this tab as Personal to edit and correct it or add notes. All changes will be seen only by you. Learn more »
launch autoscroll
font size
0
reset
guitar tuner
backing track
0:00
0:00
edit
Autoscroll
slow
fast
+/-
esc
set tempo
stop
"IN THE END"

by GREEN DAY

From the album "DOOKIE" (1994)



BASS GUITAR TUNING = 1/2 STEP DOWN (Eb G# C# F#)

TEMPO = approx. 240bpm

TIME SIGNATURE = 4/4 (no - not triplets contrary to some beliefs)





|------------------------ VERSE 1 (0:00) -----------------------|
|                                                               |
|                                                               |
|E E E E E E E E|E E E E E E E E|E E E E E E E E|E E E E E E E E|
|               |               |               |               |
|---------------|---------------|---------------|---------------|
|---------------|---------------|---------------|---------------|
|---------------|---------------|---------------|---------------|
|5-----5-----5--|3-----3-----3--|5-----5-----5--|3-----3-----3--|

|E E E E E E E E|E E E E E E E E|E E E E E E E E|E E E E E E E E|
|               |               |               |               |
|---------------|---------------|---------------|---------------|
|---------------|---------------|---------------|---------------|
|---------------|---------------|---------------|---------------|
|5-----5-----5--|3-----3-----3--|5-----5-----5--|3-----3-----3--|

|E E E E E E E E|E E E E E E E E|E E E E E E E E|E E E E E E E E|
|               |               |               |               |
|---------------|---------------|---------------|---------------|
|---------------|---------------|---------------|---------------|
|---------------|---------------|---------------|---------------|
|5-----5-----5--|3-----3-----3--|5-----5-----5--|3-----3-----3--|

|E E E E E E E E|E E E E E E E E|E E E E E E E E|E E E E E E E E|
|               |               |               |               |
|---------------|---------------|---------------|---------------|
|---------------|---------------|---------------|---------------|
|---------------|---------------|---------------|---------------|
|5-----5-----5--|3-----3-----3--|5-----5-----5--|5---5---7---5--|



|----------------------- CHORUS 1 (0:15) -----------------------|
|                                                               |
|                                                               |
|E E E E E E E E|E E E E E E E E|E E E E E E E E|E E E E E E E E|
|               |               |               |               |
|---------------|---------------|---------------|---------------|
|---------------|---------------|---------------|---------------|
|5---5-------5--|5-----5-----5--|7---7-------7--|7-----7-----7--|
|---------------|---------------|---------------|---------------|

|E E E E E E E E|E E E E E E E E|E E E E E E E E|E E E E E E E E|
|               |               |               |               |
|---------------|---------------|---------------|---------------|
|------7--------|------7--------|---------------|---------------|
|---------------|---------------|---------------|---------------|
|5-----------5--|5-----------0--|2-----2-----2--|2--------------|

|E E E E E E E E|E E E E E E E E|E E E E E E E E|E E E E E E E E|
|               |               |               |               |
|---------------|---------------|---------------|---------------|
|---------------|---------------|---------------|---------------|
|5---5-------5--|5-----5-----5--|7---7-------7--|7-----7-----7--|
|---------------|---------------|---------------|---------------|

|E E E E E E E E|E E E E E E E E|E E E E E E E E|E E E E E E E E|
|               |               |               |               |
|---------------|---------------|---------------|---------------|
|------7--------|---------------|------7--------|---------------|
|---------------|---------------|---------------|---------------|
|5-----------5--|3-----3-----0--|5-----------5--|3-----3-----0--|



|------------------------ VERSE 2 (0:29) -----------------------|
|                                                               |
|                                                               |
|E E E E E E E E|E E E E E E E E|E E E E E E E E|E E E E E E E E|
|               |               |               |               |
|---------------|---------------|---------------|---------------|
|---------------|---------------|---------------|---------------|
|---------------|---------------|---------------|---------------|
|5-----5-----5--|3-----3-----3--|5-----5-----5--|3-----3-----3--|

|E E E E E E E E|E E E E E E E E|E E E E E E E E|E E E E E E E E|
|               |               |               |               |
|---------------|---------------|---------------|---------------|
|---------------|---------------|---------------|---------------|
|---------------|---------------|---------------|---------------|
|5-----5-----5--|3-----3-----3--|5-----5-----5--|3-----3-----3--|

|E E E E E E E E|E E E E E E E E|E E E E E E E E|E E E E E E E E|
|               |               |               |               |
|---------------|---------------|---------------|---------------|
|---------------|---------------|---------------|---------------|
|---------------|---------------|---------------|---------------|
|5-----5-----5--|3-----3-----3--|5-----5-----5--|3-----3-----3--|

|E E E E E E E E|E E E E E E E E|E E E E E E E E|E E E E E E E E|
|               |               |               |               |
|---------------|---------------|---------------|---------------|
|---------------|---------------|---------------|---------------|
|---------------|---------------|---------------|---------------|
|5-----5-----5--|3-----3-----3--|5-----5-----5--|5---5---7---5--|



|----------------------- CHORUS 2 (0:43) -----------------------|
|                                                               |
|                                                               |
|E E E E E E E E|E E E E E E E E|E E E E E E E E|E E E E E E E E|
|               |               |               |               |
|---------------|---------------|---------------|---------------|
|---------------|---------------|---------------|---------------|
|5---5-------5--|5-----5-----5--|7---7-------7--|7-----7-----7--|
|---------------|---------------|---------------|---------------|

|E E E E E E E E|E E E E E E E E|E E E E E E E E|E E E E E E E E|
|               |               |               |               |
|---------------|---------------|---------------|---------------|
|------7--------|------7--------|---------------|---------------|
|---------------|---------------|---------------|---------------|
|5-----------5--|5-----------0--|2-----2-----2--|2--------------|

|E E E E E E E E|E E E E E E E E|E E E E E E E E|E E E E E E E E|
|               |               |               |               |
|---------------|---------------|---------------|---------------|
|---------------|---------------|---------------|---------------|
|5-----5-----5--|5-----5-----5--|7-----7-----7--|7-----7-----7--|
|---------------|---------------|---------------|---------------|

|E E E E E E E E|E E E E E E E E|E E E E E E E E|E E E E E E E E|
|               |               |               |               |
|---------------|---------------|---------------|---------------|
|------7--------|---------------|------7--------|---------------|
|---------------|---------------|---------------|---------------|
|5-----------5--|3-----3-----0--|5-----------5--|3-----3-----0--|

|E E E E E E E E|E E E E E E E E|E E E E E E E E|E E E E E E E E|
|               |               |               |               |
|---------------|---------------|---------------|---------------|
|------7--------|---------------|------7--------|---------------|
|---------------|---------------|---------------|---------------|
|5-----------5--|3-----3-----0--|5-----------5--|3-----3-----0--|



|------------------------ BRIDGE (1:00) ------------------------|
|                                                               |
|                                                               |
|E E E E E E E E|E E E E E E E E|E E E E E E E E|E E E E E E E E|
|               |               |               |               |
|---------------|---------------|---------------|---------------|
|---------------|---------------|---------------|---------------|
|------7--------|------5-----4--|------7--------/9---7---5---7--|
|5-----------5--|3--------------|5-----------5--|---------------|

|E E E E E E E E|E E E E E E E E|E E E E E E E E|E E E E E E E E|
|               |               |               |               |
|---------------|---------------|---------------|---------------|
|---------------|---------------|---------------|---------------|
|------7--------|------5-----4--|------7--------/9---7---5---7--|
|5-----------5--|3--------------|5-----------5--|---------------|

|E E E E E E E E|E E E E E E E E|E E E E E E E E|E E E E E E E E|
|               |               |               |               |
|---------------|---------------|---------------|---------------|
|---------------|---------------|---------------|---------------|
|------7--------|------5-----4--|------7--------/9---7---5---7--|
|5-----------5--|3--------------|5-----------5--|---------------|

|E E E E E E E E|E E E E E E E E|E E E E E E E E|E E E E E E E E|
|               |               |               |               |
|---------------|---------------|---------------|---------------|
|---------------|---------------|---------------|---------------|
|------7--------|------5-----4--|------7--------/9---7---5---7--|
|5-----------5--|3--------------|5-----------5--|---------------|

|E E E E E E E E|E E E E E E E E|E E E E E E E E|E E E E E E E E|
|               |               |               |               |
|---------------|---------------|---------------|---------------|
|---------------|---------------|---------------|---------------|
|------7--------|------5-----4--|------7--------/9---7---5---7--|
|5-----------5--|3--------------|5-----------5--|---------------|

|E E E E E E E E|E E E E E E E E|E E E E E E E E|E E E E E E E E|
|               |               |               |               |
|---------------|---------------|---------------|---------------|
|---------------|---------------|---------------|---------------|
|------7--------|------5-----4--|------7--------/9---7---5---7--|
|5-----------5--|3--------------|5-----------5--|---------------|

|E E E E E E E E|E E E E E E E E|E E E E E E E E|E E E E E E E E|
|               |               |               |               |
|---------------|---------------|---------------|---------------|
|---------------|---------------|---------------|---------------|
|------7--------|------5-----4--|------7--------|------5-----4--|
|5-----------5--|3--------------|5-----------5--|3--------------|

|E E E E E E E E|E E E E E E E E|E E E E E E E E|E E E E E E E E|
|               |               |               |               |
|---------------|---------------|---------------|---------------|
|---------------|---------------|---------------|---------------|
|------7--------|------5-----4--|------7--------|---------------|
|5-----------5--|3--------------|5-----------5--|5---5---7---5--|



|----------------------- CHORUS 3 (1:28) -----------------------|
|                                                               |
|                                                               |
|E E E E E E E E|E E E E E E E E|E E E E E E E E|E E E E E E E E|
|               |               |               |               |
|---------------|---------------|---------------|---------------|
|---------------|---------------|---------------|-----/11----9--|
|5---5-------5--|5-----5-----5--|7---7-------7--|7--------------|
|---------------|---------------|---------------|---------------|

|E E E E E E E E|E E E E E E E E|E E E E E E E E|E E E E E E E E|
|               |               |               |               |
|---------------|---------------|---------------|---------------|
|------7--------|------7--------|---------------|---------------|
|---------------|---------------|---------------|---------------|
|5-----------5--|5-----------0--|2-----2-----2--|2--------------|

|E E E E E E E E|E E E E E E E E|E E E E E E E E|E E E E E E E E|
|               |               |               |               |
|---------------|---------------|---------------|---------------|
|---------------|---------------|---------------|---------------|
|5-----5-----5--|5-----5-----5--|7-----7-----7--|7-----7-----7--|
|---------------|---------------|---------------|---------------|

|E E E E E E E E|E E E E E E E E|E E E E E E E E|E E E E E E E E|
|               |               |               |               |
|---------------|---------------|---------------|---------------|
|------7--------|---------------|------7--------|---------------|
|---------------|---------------|---------------|---------------|
|5-----------5--|3-----3-----3p0|5-----------5--|3-----3-----3p0|

|E E E E E E E E|E E E E E E E E|E E E E E E E E|E E E E E E E E|
|               |               |               |               |
|---------------|---------------|---------------|---------------|
|------7--------|---------------|---------------|---------------|
|---------------|---------------|---------------|---------------|
|5-----------5--|3-----3-----3p0|5--------------|---------------|


 END

            
            
Suggest correction
Creating personal tab
Creating personal tab
You can edit any tab online and save it as your Personal.

You can edit, replace or remove any tab part or add personal notes – all changes will be seen only by you.

Personal tabs can be accessed anytime from any device, even offline.
Learn more »
Give kudos to tab author, rate the tab!
1 2 3 4 5
comments
print report bad tab
1 comment total.
0 reply
Pink Bits 115 Oct 21, 2013 07:26 AM

Tab has been transcribed from the original master track.

guest
You may want to rate the tab now too:
select rating
Wanna post a correction for this tab? Suggest correction