Oops, an error
Loading. Please wait.

Insomniac Tab

version 4
version 4

Interactive

296 views 1 this week
no commentswrite comment
1 2 3 4 5
please rate
add to favorites
launch autoscroll
font size
0
reset
how to read this tab
guitar tuner
Autoscroll
slow
fast
+/-
esc
set tempo
stop
Help us to improve Ultimate-Guitar.com Take our survey!
×
Author
Tuning
D# G# C# F# A# D#
Album:Insomniac
Artist:Green Day
Genre:Punk Rock
Year:1995
Tuning:Half-Step Down (Eb,Ab,Db,Gb,Bb,Eb)For All Songs.


Track 1: Armatage Shanks

Intro x1
Eb-----------------|
Bb(   x3   )-------|
Gb-9999-999---9----|
Db-9999-999---9x8--|
Ab-7777-777---7----|
Eb-----------------|

Verse 1 x2
Eb------------------------------------------------------|
Bb(        x2       )-----------------------------------|
Gb---------7-777-777---------7-777-777------------------|
Db-7-77777-7-777-777---4-4---7-777-777-2-2-2----22-2----|
Ab-7-77777-5-555-555---4-4x5-5-555-555-2-2-2x4--22-2x4--|
Eb-5-55555-------------2-2-------------0-0-0----00-0----|

Chorus 1 x1
Eb-------------------------------------|
Bb-------------------------------------|
Gb-7-7-7-------------------------------|
Db-7-7-7x3--7-7---7----2----7-7---7----|
Ab-5-5-5----7-7x3-7x3--2x8--7-7x3-7x3--|
Eb----------5-5---5----0----5-5---5----|

Eb-------------------------|
Bb-------------------------|
Gb-7-7-777-----------9-----|
Db-7-7-777-7-777-777-9x16--|
Ab-5-5-555-7-777-777-7-----|
Eb---------5-555-555-------|

Then:
*Verse 2 x2
*Chorus 2 x1

Bridge 1 Pt.1 x1
Eb----------------------------------|
Bb----------------------------------|
Gb(       x2         )--7-----9-----|
Db-7-7-777--4-444-444---7x16--9x16--|
Ab-7-7-777--4-444-444---5-----7-----|
Eb-5-5-555--2-222-222---------------|

Bridge 1 Pt.2 x1
Eb-------------------------------|
Bb-------------------------------|
Gb(       x2         )--7-----9--|
Db-7-7-777--4-444-444---7x16--9--|
Ab-7-7-777--4-444-444---5-----7--|
Eb-5-5-555--2-222-222------------|

Then:
*Verse 3 x2
*Chorus 3 Pt.1 x1

Chorus 3 Pt.2 x1
Eb------------------------------------|
Bb------------------------------------|
Gb-7-7-777----------------------------|
Db-7-7-777--7-7---7----2----7-7---7---|
Ab-5-5-555--7-7x3-7x3--2x8--7-7x3-7x3-|
Eb----------5-5---5----0----5-5---5---|

Eb----------------------------------------|
Bb--------------------(    x3   )---------|
Gb-7-7-777-------------9999--999---9---9--|
Db-7-7-777--7-777-777--9999--999---9x8-9--|
Ab-5-5-555--7-777-777--7777--777---7---7--|
Eb----------5-555-555---------------------|

Song Order:
*Intro x1
*Verse 1 x2
*Chorus 1 x1
*Verse 2 x2
*Chorus 2 x1
*Bridge 1 Pt.1 x1
*Bridge 1 Pt.2 x1
*Verse 3 x2
*Chorus 3 Pt.1 x1
*Chorus 3 Pt.2 x1


Track 2: Brat

Intro x1
Eb-----------------------|
Bb-----------------------|
Gb-5-555-------7-7-7777--|
Db-5-555-5-555-7-7-7777--|
Ab-3-333-5-555-5-5-5555--|
Eb-------3-333-----------|

Verse 1 x3
Eb-------------------------------|
Bb-------------------------------|
Gb------5-55------5-55------7----|
Db-5-55-5-55-5----5-55-5-55-7x8--|
Ab-5-55-3-33-5x8--3-33-5-55-5----|
Eb-3-33------3---------3-33------|

Chorus 1 x1
Eb--------------------------------------------|
Bb(    x3   )---------------------------------|
Gb-5-55--------7----5-55-----------7----7-77--|
Db-5-55-5-55---7x8--5-55-5-55--3---7x8--7-77--|
Ab-3-33-5-55---5----3-33-5-55--3x8-5----5-55--|
Eb------3-33-------------3-33--1--------------|
                               .
Then:
*Verse 2 x4
*Chorus 2 x1

Bridge 1 Pt.1 x4
Eb--------------------------------------|
Bb--------------------------------------|
Gb------5-55-------------5-55------7----|
Db-5-55-5-55-5555-4/5-55-5-55-5-55-7x8--|
Ab-5-55-3-33-5555-4/5-55-3-33-5-55-5----|
Eb-3-33------3333-2/3-33------3-33------|

Then:
*Chorus 3 x1

Outro x1
Eb-------|
Bb-------|
Gb-------|
Db---5\--|
Ab---5\--|
Eb---3\--|

Song Order:
*Intro x1
*Verse 1 x3
*Chorus 1 x1
*Verse 2 x4
*Chorus 2 x1
*Bridge 1 Pt.1 x4
*Chorus 3 x1
*Outro x1


Track 3: Stuck With Me

Intro 1 x2
Eb-----------------------------------|
Bb-----------------------------------|
Gb-9-9-999-99------------------------|
Db-9-9-999-99--X-11--X-9--X-7--7-----|
Ab-7-7-777-77--X-11--X-9--X-7--7x14--|
Eb-------------X--9--X-7--X-5--5-----|

Verse 1 Pt.1 x1
Eb--------------|
Bb--------------|
Gb-9-------9----|
Db-9-99999-9x8--|
Ab-7-77777-7----|
Eb---....-------|

Verse 1 Pt.2 x1
Eb---------------------------------------|
Bb---------------------------------------|
Gb-----------------(        x2        )--|
Db-9-9-9999-99-9----7-7-7----9-99-9999---|
Ab-9-9-9999-99-9x4--7-7-7x3--9-99-9999---|
Eb-7-7-7777-77-7----5-5-5----7-77-7777---|

Verse 1 Pt.3 x1
Eb-------------------------------------------|
Bb-------------------------------------------|
Gb-9---------------------(        x2      )--|
Db-9x16--9-9-9999-99-9----7-7-777---9-99-9---|
Ab-7-----9-9-9999-99-9x4--7-7-777---9-99-9---|
Eb-------7-7-7777-77-7----5-5-555---7-77-7---|

Chorus 1 Pt.1 x3
Eb----------------------|
Bb----------------------|
Gb-6-6-6--------9-9-----|
Db-6-6-6x4--7-7-9-9x14--|
Ab-4-4-4----7-7-7-7-----|
Eb----------5-5---------|

Chorus 1 Pt.2 x1
Eb------------------------------|
Bb------------------------------|
Gb---------------------9-----9--|
Db-7-777777--9-999999--9x16--9--|
Ab-7-777777--9-999999--7-----7--|
Eb-5-555555--7-777777-----------|

Verse 2 Pt.1 x1
Eb------------------------------------------------|
Bb------------------------------------------------|
Gb-9-9-9----99-9-------------(       x2        )--|
Db-9-9-9x4--99-9x4--9-9--9----7-7-7----9-99-9-----|
Ab-7-7-7----77-7----9-9--9x4--7-7-7x3--9-99-9x4---|
Eb------------------7-7--7----5-5-5----7-77-7-----|

Verse 2 Pt.2 x1
Eb-------------|
Bb-------------|
Gb-9------9----|
Db-9-9999-9x8--|
Ab-7-7777-7----|
Eb---....------|

Eb---------------------------------------|
Bb---------------------------------------|
Gb------------------(        x2       )--|
Db-9-9-9999--99-9----7-7-7----9-99-9-----|
Ab-9-9-9999--99-9x4--7-7-7x3--9-99-9x4---|
Eb-7-7-7777--77-7----5-5-5----7-77-7-----|

Chorus 2 Pt.1 x3
Eb----------------------|
Bb----------------------|
Gb-6-6-6--------9-9-----|
Db-6-6-6x4--7-7-9-9x14--|
Ab-4-4-4----7-7-7-7-----|
Eb----------5-5---------|

Chorus 2 Pt.2 x1
Eb-------------------------|
Bb-------------------------|
Gb-------------------9-----|
Db-7-777777-9-999999-9x10--|
Ab-7-777777-9-999999-7-----|
Eb-5-555555-7-777777-------|

Bridge 1 Pt.1 x1
Eb----------------------|
Bb----------------------|
Gb----------------------|
Db-X-11--X-9--X-7-7-----|
Ab-X-11--X-9--X-7-7x14--|
Eb-X--9--X-7--X-5-5-----|

Bridge 1 Pt.2 x3
Eb-----------------------------------|
Bb-----------------------------------|
Gb-9-9-999-99------------------------|
Db-9-9-999-99--X-11--X-9--X-7--7-----|
Ab-7-7-777-77--X-11--X-9--X-7--7x14--|
Eb-------------X--9--X-7--X-5--5-----|

Bridge 1 Pt.3 x1
Eb---X-----|
Bb---X-----|
Gb---X-----|
Db---Xx32--|
Ab---X-----|
Eb---X-----|

Chorus 3 Pt.1 x3
Eb----------------------|
Bb----------------------|
Gb-6-6-6--------9-9-----|
Db-6-6-6x4--7-7-9-9x14--|
Ab-4-4-4----7-7-7-7-----|
Eb----------5-5---------|

Chorus 3 Pt.2 x1
Eb------------------------------|
Bb------------------------------|
Gb---------------------9-----9--|
Db-7-777777--9-999999--9x12--9--|
Ab-7-777777--9-999999--7-----7--|
Eb-5-555555--7-777777-----------|

Song Order:
*Intro 1 x2
*Verse 1 Pt.1 x1
*Verse 1 Pt.2 x1
*Verse 1 Pt.3 x1
*Chorus 1 Pt.1 x3
*Chorus 1 Pt.2 x1
*Verse 2 Pt.1 x1
*Verse 2 Pt.2 x1
*Chorus 2 Pt.1 x3
*Chorus 2 Pt.2 x1
*Bridge 1 Pt.1 x1
*Bridge 1 Pt.2 x3
*Bridge 1 Pt.3 x1
*Chorus 3 Pt.1 x3
*Chorus 3 Pt.2 x1


Track 4: Geek Stink Breath

Intro x4
Eb----------------|
Bb----------------|
Gb----------55----|
Db-55-XX-33-55----|
Ab-55-XX-33-33-0--|
Eb-33-XX-11----0--|

Pre-Verse 1 Pt.1 x3
Eb----------------|
Bb----------------|
Gb----------------|
Db-55-5---33-3----|
Ab-55-5-0-33-3-0--|
Eb-33-3-0-11-1-0--|
   ..     ..

Pre-Verse 1 Pt.2 x1
Eb-------------|
Bb-------------|
Gb-------------|
Db-55-5---3333-|
Ab-55-5-0-3333-|
Eb-33-3-0-1111-|
   ..

Verse 1 x7
Eb----------------|
Bb----------------|
Gb----------------|
Db-55-5---33-3----|
Ab-55-5-0-33-3-0--|
Eb-33-3-0-11-1-0--|
   ..     ..

Pre-Chorus 1 x1
Eb-------------|
Bb-------------|
Gb-------------|
Db---55555555--|
Ab---55555555--|
Eb---33333333--|

Chorus 1 Pt.1 x4
Eb--------------|
Bb--------------|
Gb-333----------|
Db-333---3-333--|
Ab-111-0-3-333--|
Eb-----0-1-111--|

Chorus 1 Pt.2 x3
Eb--------------|
Bb--------------|
Gb--------------|
Db-555---333----|
Ab-555-0-333-0--|
Eb-333-0-111-0--|

Post-Chorus 1 x1
Eb-------------|
Bb-------------|
Gb-------------|
Db---55555555--|
Ab---55555555--|
Eb---33333333--|

Pre-Verse 2 x2
Eb----------------|
Bb----------------|
Gb----------------|
Db-55-5---33-3----|
Ab-55-5-0-33-3-0--|
Eb-33-3-0-11-1-0--|

Then:
*Verse 2 x7
*Pre-Chorus 2 x1
*Chorus 2 Pt.1 x4
*Chorus 2 Pt.2 x3
*Post-Chorus 2 x1
*Interlude 1 x8 (Just Use Intro Riff)

Interlude 2 x7
Eb-------------|
Bb-------------|
Gb-------------|
Db-55---3-333--|
Ab-55-0-3-333--|
Eb-33-0-1-111--|

Pre-Chorus 3 x1
Eb------------|
Bb------------|
Gb------------|
Db--55555555--|
Ab--55555555--|
Eb--33333333--|

Then:
*Chorus 3 Pt.1 x4
*Chorus 3 Pt.2 x3
*Post-Chorus 3 x1

Outro Pt.1 x4
Eb----------------|
Bb----------------|
Gb----------55----|
Db-55-XX-33-55----|
Ab-55-XX-33-33-0--|
Eb-33-XX-11----0--|

Outro Pt.2 x1
Eb-----------------|
Bb(   x2    )------|
Gb--------55-------|
Db-55-333-55---55--|
Ab-55-333-33---55--|
Eb-33-111------33--|

Song Order:
*Intro x4
*Pre-Verse 1 Pt.1 x3
*Pre-Verse 1 Pt.2 x1
*Verse 1 x7
*Pre-Chorus 1 x1
*Chorus 1 Pt.1 x4
*Chorus 1 Pt.2 x3
*Post-Chorus 1 x1
*Pre-Verse 1 x2
*Verse 2 x7
*Pre-Chorus 2 x1
*Chorus 2 Pt.1 x4
*Chorus 2 Pt.2 x3
*Interlude 1 x8
*Interlude 2 x7
*Pre-Chorus 3 x1
*Chorus 3 Pt.1 x4
*Chorus 3 Pt.2 x3
*Post-Chorus 3 x1
*Outro Pt.1 x4
*Outro Pt.2 x1


Track 5: No Pride

Intro x4
Eb----------------|
Bb----------------|
Gb-----888-6-6----|
Db-6-6-888-6-6x7--|
Ab-6-6-666-4-4----|
Eb-4-4------------|

Verse 1 x4
Eb----------------------------------------|
Bb----------------------------------------|
Gb---------8-888-888--6-6-666-------------|
Db-6-6-666-8-888-888--6-6-666--6-666-666--|
Ab-6-6-666-6-666-666--4-4-444--6-666-666--|
Eb-4-4-444---------------------4-444-444--|

Chorus 1 Pt.1 x2
Eb-------------------------|
Bb-------------------------|
Gb-8-----6-6-----8-888888--|
Db-8x16--6-6-6-6-8-888888--|
Ab-6-----4-4-6-6-6-666666--|
Eb-----------4-4-----------|

Chorus 1 Pt.2 x1
Eb------------------------------------------------------|
Bb------------------------------------------------------|
Gb--------5-555-555--6-6-666--9-9---999----------8-888--|
Db-6-6----5-555-555--6-6-666--9-9x3-999--6-6-666-8-888--|
Ab-6-6x5--3-333-333--4-4-444--7-7---777--6-6-666-6-666--|
Eb-4-4-----------------------------------4-4-444--------|

Then:
*Post-Chorus 1 x2 (Use Intro Riff)
*Verse 2 x4
*Chorus 2 Pt.1 x2
*Chorus 2 Pt.2 x1
*Post-Chorus 2 x2
*Bridge 1 x4 (Use Intro Riff)
*Chorus 3 Pt.1 x2
*Chorus 3 Pt.2 x1
*Outro 1 x4 (Use Intro Riff)

Outro 2 x1
Eb--------|
Bb--------|
Gb--------|
Db-----6--|
Ab-----6--|
Eb-----4--|

Song Order:
*Intro x4
*Verse 1 x4
*Chorus 1 Pt.1 x2
*Chorus 1 Pt.2 x1
*Post-Chorus 1 x2
*Verse 2 x4
*Chorus 2 Pt.1 x2
*Chorus 2 Pt.2 x1
*Post-Chorus 2 x2
*Bridge 1 x4
*Chorus 3 Pt.1 x2
*Chorus 3 Pt.2 x1
*Outro 1 x4
*Outro 2 x1


Track 6: Bab's Uvula Who?

Intro Pt.1 x1
Eb-------------------|
Bb-------------------|
Gb-------------------|
Db-9~~~--7~~~--4~~~--|
Ab-9~~~--7~~~--4~~~--|
Eb-7~~~--5~~~--2~~~--|

Pre-Verse 1 x2
Eb----------------------|
Bb----------------------|
Gb-----------------999--|
Db-99--99--99--7-7-999--|
Ab-99--99--99--7-7-777--|
Eb-77--77--77--5-5------|

Verse 1 x4
Eb----------------------|
Bb----------------------|
Gb-----------------999--|
Db-99--99--99--7-7-999--|
Ab-99--99--99--7-7-777--|
Eb-77--77--77--5-5------|

Chorus 1 Pt.1 x3
Eb-----------------|
Bb-----------------|
Gb------------999--|
Db-9-9----7-7-999--|
Ab-9-9x7--7-7-777--|
Eb-7-7----5-5------|

Chorus 1 Pt.2 x1
Eb------------------------|
Bb------------------------|
Gb------------------------|
Db-9-9----9-9-777-4~~~~~--|
Ab-9-9x7--9-9-777-4~~~~~--|
Eb-7-7----7-7-555-2~~~~~--|

Then:
*Pre-Verse 2 x1
*Verse 2 x4
*Chorus 2 Pt.1 x3
*Chorus 2 Pt.2 x1

Bridge 1 Pt.1 x2
Eb-------------------------------------|
Bb-------------------------------------|
Gb--------------------------------999--|
Db-9-9----7/9-999999-7/9-9----7-7-999--|
Ab-9-9x6--7/9-999999-7/9-9x8--7-7-777--|
Eb-7-7----5/7-777777-5/7-7----5-5------|

Then:
*Bridge 1 Pt.2 x4 (Use Bridge 1 Pt.1 Chords)

Chorus 3 Pt.1 x4
Eb---------------------|
Bb---------------------|
Gb----------------999--|
Db-9-9999999--7-7-999--|
Ab-9-9999999--7-7-777--|
Eb-7-7777777--5-5------|

Outro x1
Eb-----------|
Bb-----------|
Gb-----------|
Db-99-99-99--|
Ab-99-99-99--|
Eb-77-77-77--|

Song Order:
*Intro Pt.1 x1
*Pre-Verse 1 x2
*Verse 1 x4
*Chorus 1 Pt.1 x3
*Chorus 1 Pt.2 x1
*Pre-Verse 2 x1
*Verse 2 x4
*Chorus 2 Pt.1 x3
*Chorus 2 Pt.2 x1
*Bridge 1 Pt.1 x2
*Bridge 1 Pt.2 x4
*Chorus 3 Pt.1 x4
*Outro x1


Track 7: 86

Intro Pt.1 x1
Eb---------|
Bb---------|
Gb---------|
Db-----X\--|
Ab-----X\--|
Eb-----X\--|

Intro Pt.2 x2
Eb------------------------------------|
Bb------------------------------------|
Gb-9-99-999---------------------------|
Db-9-99-999--6-66-666--7-77-777--7----|
Ab-7-77-777--6-66-666--7-77-777--7x8--|
Eb-----------4-44-444--5-55-555--5----|

Verse 1 Pt.1 x1
Eb-------------------------------------------------|
Bb-------------------------------------------------|
Gb---------4-4----4-4----2-2----2-2------------22--|
Db-2-2-----4-4x4--4-4x7--2-2x4--2-2x7--2-2-----22--|
Ab-2-2x15--2-2----2-2----0-0----0-0----2-2x15--00--|
Eb-0-0-------.-------------.-----------0-0---------|
     .                                   .
Verse 1 Pt.2 x1
Eb---------------------------------------------------|
Bb---------------------------------------------------|
Gb---------4-4----4-444-444--22-2---2----------------|
Db-2-2-----4-4x4--4-444-444--22-2x4-2x7--22-2---2----|
Ab-2-2x15--2-2----2-222-222--00-0---0----22-2x4-2x7--|
Eb-0-0-------.---------------------------00-0---0----|
     .

Pre-Chorus 1 x2
Eb-----------------|
Bb-----------------|
Gb-4-4-----2-2-----|
Db-4-4x14--2-2x14--|
Ab-2-2-----0-0-----|
Eb-----------------|

Then:
*Chorus 1 x4 (Use Intro Riff)
*Verse 2 Pt.1 x1
*Verse 2 Pt.2 x1
*Pre-Chorus 2 x2
*Chorus 2 x4 (Use Intro Riff)
*Post-Chorus 1 x4 (Use Intro Riff)

Interlude 1 x1
Eb-----------------------|
Bb-----------------------|
Gb-----------------------|
Db-9----7--9----7--7-----|
Ab-9x7--7--9x7--7--7x15--|
Eb-7----5--7----5--5-----|

Then:
*Chorus 3 x4 (Use Intro Riff)

Outro x1
Eb------------|
Bb------------|
Gb------------|
Db-9999999-7--|
Ab-9999999-7--|
Eb-7777777-5--|

Song Order:
*Intro Pt.1 x1
*Intro Pt.2 x2
*Verse 1 Pt.1 x1
*Verse 1 Pt.2 x1
*Pre-Chorus 1 x2
*Chorus 1 x4
*Verse 2 Pt.1 x1
*Verse 2 Pt.2 x1
*Pre-Chorus 2 x2
*Chorus 2 x4
*Post-Chorus 1 x4
*Interlude 1 x1
*Chorus 3 x4
*Outro x1


Track 8: Panic Song

Intro Pt.1 x2
Eb----------|
Bb----------|
Gb-4~~~~~~--
Db-4~~~~~~--
Ab-2~~~~~~--
Eb----------

Intro Pt.2 x2
Eb---------------------------|
Bb---4~~--5~~--7~~~~--7~~~~--|
Gb-4------4~~--4~~~~--4~~~~--|
Db---------------------------|
Ab---------------------------|
Eb---------------------------|

Intro Pt.3 x4
Eb----------------------------|
Bb----------------(   x2   )--|
Gb---------9-9~~~--11-11~~~---|
Db-9-9~~~--9-9~~~---9--9~~~---|
Ab-9-9~~~--7-7~~~---9--9~~~---|
Eb-7-7~~~---------------------|

Intro Pt.4 x1
Eb-------|
Bb-------|
Gb-------|
Db---X\--
Ab---X\--
Eb---X\--

Intro Pt.5 x8
Eb-------------|
Bb-------------|
Gb-11-11-X-----|
Db--9--9-Xx17--|
Ab--9--9-X-----|
Eb-------------|

Intro Pt.6 x1
Eb-----------------------------------|
Bb---------------------(     x3   )--|
Gb-11-11-11-11-11-11----11-11--------|
Db--9--9--9--9--9--9-----9--9--9x9---|
Ab--9--9--9--9--9--9-----9--9--.-----|
Eb-----------------------------------|

Intro Pt.7 x1
Eb-----------------|
Bb-----------------|
Gb-11-11-------X\--|
Db--9--9--9x7--X\--|
Ab--9--9--.----X\--|
Eb-----------------|

Verse 1 x1
Eb-------------------------------------------|
Bb-------------------------------------------|
Gb-------------------4-----------------------|
Db-6-------4-4-------4x32--6-------4-4-------|
Ab-6x16--0-4-4x14-0--2-----6x16--0-4-4x14-0--|
Eb-4-----0-2-2----0--------4-----0-2-2----0--|

Chorus 1 x1
Eb-------------------------------------|
Bb-------------------------------------|
Gb--------4-444-444---------4-444-444--|
Db-2-2----4-444-444--4-4----4-444-444--|
Ab-2-2x5--2-222-222--4-4x5--2-222-222--|
Eb-0-0---------------2-2---------------|

Eb-----------------------------------|
Bb-----------------------------------|
Gb--------4-444-444------------------|
Db-2-2----4-444-444--7777-777-4~~~~--|
Ab-2-2x5--2-222-222--7777-777-4~~~~--|
Eb-0-0---------------5555-555-2~~~~--|

Verse 2 x2
Eb------------------------|
Bb------------------------|
Gb-4----------------------|
Db-4x32--6------4-4-------|
Ab-2-----6x16-0-4-4x14-0--|
Eb-------4----0-2-2----0--|

Then:
*Chorus 2 x1

Interlude 1 x3
Eb--------------------------|
Bb--------------------------|
Gb-4------------------------|
Db-4x16--7-7-777-4-444-444--|
Ab-2-----7-7-777-4-444-444--|
Eb-------5-5-555-2-222-222--|

Outro x1
Eb------------------------|
Bb------------------------|
Gb-4----------------------|
Db-4x16--7-7-777--4~~~~~--|
Ab-2-----7-7-777--4~~~~~--|
Eb-------5-5-555--2~~~~~--|

Song Order:
*Intro Pt.1 x2
*Intro Pt.2 x2
*Intro Pt.3 x4
*Intro Pt.4 x1
*Intro Pt.5 x8
*Intro Pt.6 x1
*Intro Pt.7 x1
*Verse 1 x1
*Chorus 1 x1
*Verse 2 x2
*Chorus 2 x1
*Interlude 1 x3
*Outro x1


Track 9: Stuart And The Ave.

Intro x1
Eb------------|
Bb------------|
Gb-7----------|
Db-7-7777777--|
Ab-5-7777777--|
Eb---5555555--|

Pre-Verse 1 x1
Eb-----------------------------------------|
Bb-----------------------------------------|
Gb-7-7-777---------------------------------|
Db-7-7-777--2-222-222--5-5-5----7-777-777--|
Ab-5-5-555--2-222-222--5-5-5x3--7-777-777--|
Eb----------0-000-000--3-3-3----5-555-555--|

Verse 1 Pt.1 x1
Eb--------------------------------------------|
Bb--------------------------------------------|
Gb-7-7-777----------------------7-7-7----777--|
Db-7-7-777--2-222-222--5-5-5----7-7-7x3--777--|
Ab-5-5-555--2-222-222--5-5-5x3--5-5-5----555--|
Eb----------0-000-000--3-3-3------------------|

Verse 1 Pt.2 x1
Eb-----------------------------------------|
Bb-----------------------------------------|
Gb-7-7-777---------------------------------|
Db-7-7-777--2-222-222--5-5-5----7-777-777--|
Ab-5-5-555--2-222-222--5-5-5x3--7-777-777--|
Eb----------0-000-000--3-3-3----5-555-555--|

Then:
*Verse 1 Pt.1 x1
*Verse 1 Pt.2 x1

Chorus 1 Pt.1 x1
Eb---------------------------------|
Bb---------------------------------|
Gb-4-4-444----------4-4-4----------|
Db-4-4-444-5-5-555--4-4-4x3--5~~~--|
Ab-2-2-222-5-5-555--2-2-2----5~~~--|
Eb---------3-3-333-----------3~~~--|

Chorus 1 Pt.2 x1
Eb-------------------------------|
Bb-------------------------------|
Gb-7-77-777----------------------|
Db-7-77-777-2-222-222-5555--XXX--|
Ab-5-55-555-2-222-222-5555--XXX--|
Eb----------0-000-000-3333--XXX--|

Chorus 1 Pt.3 x1
Eb----------------|
Bb----------------|
Gb-7-7-7777-------|
Db-7-7-7777--7----|
Ab-5-5-5555--7x7--|
Eb-----------5----|

Then:
*Pre-Verse 2 x1
*Verse 2 Pt.1 x1
*Verse 2 Pt.2 x1
*Verse 2 Pt.1 x1
*Verse 2 Pt.2 x1
*Chorus 2 Pt.1 x1
*Chorus 2 Pt.2 x1
*Chorus 2 Pt.3 x1
*Bridge 1 Pt.1 x1 (Use Verse 1 Pt.1 x1)
*Bridge 1 Pt.2 x1 (Use Verse 1 Pt.2 x1)
*Bridge 1 Pt.1 x1 (Use Verse 1 Pt.1 x1)
*Bridge 1 Pt.2 x1 (Use Verse 1 Pt.2 x1)
*Chorus 3 Pt.1 x1
*Chorus 3 Pt.2 x1
*Chorus 3 Pt.3 x1

Outro x1
Eb---------------------------|
Bb(        x2     )----------|
Gb-7-7-7777~~--------7~~~~~--|
Db-7-7-7777~~--7-----7~~~~~--|
Ab-5-5-5555~~--7x7---5~~~~~--|
Eb-------------5-------------|

Song Order:
*Intro x1
*Pre-Verse 1 x1
*Verse 1 Pt.1 x1
*Verse 1 Pt.2 x1
*Verse 1 Pt.1 x1
*Verse 1 Pt.2 x1
*Chorus 1 Pt.1 x1
*Chorus 1 Pt.2 x1
*Chorus 1 Pt.3 x1
*Pre-Verse 2 x1
*Verse 2 Pt.1 x1
*Verse 2 Pt.2 x1
*Verse 2 Pt.1 x1
*Verse 2 Pt.2 x1
*Chorus 2 Pt.1 x1
*Chorus 2 Pt.2 x1
*Chorus 2 Pt.3 x1
*Bridge 1 Pt.1 x1 (Use Verse 1 Pt.1 x1)
*Bridge 1 Pt.2 x1 (Use Verse 1 Pt.2 x1)
*Bridge 1 Pt.1 x1 (Use Verse 1 Pt.1 x1)
*Bridge 1 Pt.2 x1 (Use Verse 1 Pt.2 x1)
*Chorus 3 Pt.1 x1
*Chorus 3 Pt.2 x1
*Chorus 3 Pt.3 x1


Track 10: Brain Stew

Intro x2
Eb------------------|
Bb------------------|
Gb------------------|
Db-77-55-44--33-22--|
Ab-77-55-44--33-22--|
Eb-55-33-22--11-00--|

Then:
Verse 1 x9 (Use Intro Riff)

Pre-Chorus 1 x1
Eb----------------------|
Bb----------------------|
Gb----------------------|
Db-77-55-44--33~~-22~~--|
Ab-77-55-44--33~~-22~~--|
Eb-55-33-22--11~~-00~~--|

Chorus 1 x2
Eb----X-------X-------X--------X--------X----|
Bb----X-------X-------X--------X--------X----|
Gb----X-------X-------X--------X--------X----|
Db-77-Xx6--55-Xx6--44-Xx6--3-3-Xx6--2-2-Xx6--|
Ab-77-X----55-X----44-X----3-3-X----2-2-X----|
Eb-55-X----33-X----22-X----1-1-X----0-0-X----|

Then:
*Verse 2 x3
*Pre-Chorus 2 x1
*Chorus 2 x2
*Verse 3 x3

Pre-Chorus 3 x1
Eb------------------------------|
Bb------------------------------|
Gb------------------------------|
Db-77-55-44-------3-3~~--2-2~~--|
Ab-77-55-44-------3-3~~--2-2~~--|
Eb-55-33-22--13\--1-1~~--0-0~~--|

Outro x6
Eb--------0~~---------0~~---------0~~--|
Bb--------0~~---------0~~---------0~~--|
Gb-------------------------------------|
Db-7-7~~-------5-5~~-------4-4~~-------|
Ab-7-7~~-------5-5~~-------4-4~~-------|
Eb-5-5~~-------3-3~~-------2-2~~-------|

Eb---------------|
Bb---------------|
Gb---------------|
Db-3-3~~--2-2~~--|
Ab-3-3~~--2-2~~--|
Eb-1-1~~--0-0~~--|

Outro x1
Eb-----------|
Bb-----------|
Gb-----------|
Db-7-7~~~~~--|
Ab-7-7~~~~~--|
Eb-5-5~~~~~--|

Song Order:
Intro x2
Verse 1 x9 (Use Intro Riff)
Pre-Chorus 1 x1
Chorus 1 x2
Verse 2 x3
Pre-Chorus 2 x1
Chorus 2 x2
Verse 3 x3
Pre-Chorus 3 x1
Outro Pt.1 x6
Outro Pt.2 x1


Track 11: Jaded

Intro x4
Eb-----------------|
Bb-----------------|
Gb------------7-7--|
Db-7-7-77-5-5-7-7--|
Ab-7-7-77-5-5-5-5--|
Eb-5-5-55-3-3------|

Then:
Verse 1 x7 (Use Intro Riff)

Pre-Chorus 1 x1
Eb--------------|
Bb--------------|
Gb--------------|
Db-7-7-77-7777--|
Ab-7-7-77-7777--|
Eb-5-5-55-5555--|

Chorus 1 Pt.1 x1
Eb----------------------|
Bb----------------------|
Gb-7--------------------|
Db-7x15--7-7-77-5-5-7---|
Ab-5-----7-7-77-5-5-7-0-|
Eb-------5-5-55-3-3-5-0-|

Chorus 1 Pt.2 x1
Eb-------------------|
Bb-------------------|
Gb-7-----77-88-9-----|
Db-7x12--77-88-9x16--|
Ab-5-----55-66-7-----|
Eb-------------------|

Then:
*Post-Chorus 1 x2 (Use Intro Riff)
*Verse 2 x7
*Pre-Chorus 2 x1
*Chorus 2 Pt.1 x1
*Chorus 2 Pt.2 x1
*Bridge 1 x5 (Use Intro Riff)
*Chorus 3 Pt.1 x1
*Chorus 3 Pt.2 x1
*Outro Pt.1 x3 (Use Intro Riff)

Outro Pt.2 x1
Eb--------------------|
Bb--------------------|
Gb-------------7------|
Db-7-7-77-5-5--7-5-7--|
Ab-7-7-77-5-5--5-5-7--|
Eb-5-5-55-3-3----3-5--|

Song Order:
*Intro x4
*Verse 1 x7 (Use Intro Riff)
*Pre-Chorus 1 x1
*Chorus 1 Pt.1 x1
*Chorus 1 Pt.2 x1
*Post-Chorus 1 x2 (Use Intro Riff)
*Verse 2 x7
*Pre-Chorus 2 x1
*Chorus 2 Pt.1 x1
*Chorus 2 Pt.2 x1
*Bridge 1 x5 (Use Intro Riff)
*Chorus 3 Pt.1 x1
*Chorus 3 Pt.2 x1
*Outro Pt.1 x3 (Use Intro Riff)
*Outro Pt.2 x1


Track 12: Westbound Sign

Intro x4
Eb---------------------|
Bb---------------------|
Gb--------------9-999--|
Db-9-9-999-6-66-9-999--|
Ab-9-9-999-6-66-7-777--|
Eb-7-7-777-4-44--------|

Verse 1 x4
Eb-----------------------------------------|
Bb-----------------------------------------|
Gb-----------------------------------------|
Db-9-9-999--4-4---4----6-6-666--2-2---2----|
Ab-9-9-999--4-4x3-4x3--6-6-666--2-2x3-2x3--|
Eb-7-7-777--2-2---2----4-4-444--0-0---0----|

Then:
*Chorus 1 x4 (Use Intro Riff)
*Verse 2 x4
*Chorus 2 x4 (Use Intro Riff)

Bridge 1 Pt.1 x3
Eb-----------------------------------------|
Bb-----------------------------------------|
Gb------------------------------4-444-444--|
Db-4-4-444--7-7---7----2-2-222--4-444-444--|
Ab-4-4-444--7-7x3-7x3--2-2-222--2-222-222--|
Eb-2-2-222--5-5---5----0-0-000-------------|

Bridge 1 Pt.2 x1
Eb--------------------------------------|
Bb--------------------------------------|
Gb--------------------------------------|
Db-4-4-444--7-777-777--2-2----22222222--|
Ab-4-4-444--7-777-777--2-2x8--22222222--|
Eb-2-2-222--5-555-555--0-0----00000000--|
                         .
Then:
*Outro Pt.1 x4 (Use Verse Riff)
*Outro Pt.2 x5 (Use Intro Riff)

Outro Pt.3 x1
Eb--------------------------|
Bb--------------------------|
Gb----------------9-999-----|
Db-9-9-999--6-66--9-999--9--|
Ab-9-9-999--6-66--7-777--9--|
Eb-7-7-777--4-44---------7--|

Song Order:
*Intro x4
*Verse 1 x4
*Chorus 1 x4 (Use Intro Riff)
*Verse 2 x4
*Chorus 2 x4 (Use Intro Riff)
*Bridge 1 Pt.1 x3
*Bridge 1 Pt.2 x1
*Outro Pt.1 x4 (Use Verse Riff)
*Outro Pt.2 x5 (Use Intro Riff)
*Outro Pt.3 x1


Track 13: Tight Wad Hill

Verse 1 Pt.1 x1
Eb-------------------------------------------------------|
Bb-------------------------------------------------------|
Gb(        x2      )-------------------------------------|
Db-7-7-7777-77-7777---5-5-5---55-5----7-7-7----777--5-5--|
Ab-7-7-7777-77-7777---5-5-5x4-55-5x4--7-7-7x4--777--5-5--|
Eb-5-5-5555-55-5555---3-3-3---33-3----5-5-5----555--3-3--|

Verse 1 Pt.2 x1
Eb--------------------------------------------------|
Bb--------------------------------------------------|
Gb(        x2      )--------------------------------|
Db-7-7-7777-77-7777---5-5-5---55-5----7-7-7----7----|
Ab-7-7-7777-77-7777---5-5-5x4-55-5x4--7-7-7x4--7x7--|
Eb-5-5-5555-55-5555---3-3-3---33-3----5-5-5----5----|

Chorus 1 Pt.1 x2
Eb-------------------------------------|
Bb-------------------------------------|
Gb-5-5-555-----------------------------|
Db-5-5-555-5-555-555--7-7--55-5/7-7----|
Ab-3-3-333-5-555-555--7-7--55-5/7-7x7--|
Eb---------3-333-333--5-5--33-3/5-5----|

Chorus 1 Pt.2 x1
Eb---------------------------------|
Bb(        x2       )--------------|
Gb-5-55-55-------------5~~~--------|
Db-5-55-55-5-555-555---5~~~--5~~~--|
Ab-3-33-33-5-555-555---3~~~--5~~~--|
Eb---------3-333-333---------3~~~--|

Eb---------------------|
Bb---------------------|
Gb---------------------|
Db-7-7-7777--777--5-5--|
Ab-7-7-7777--777--5-5--|
Eb-5-5-5555--555--3-3--|

Then:
*Verse 2 Pt.1 x1
*Verse 2 Pt.2 x1
*Chorus 2 Pt.1 x2

Chorus 2 Pt.2 x1
Eb----------------------------------|
Bb(         x2       )--------------|
Gb-5-55-55--------------5~~~--------|
Db-5-55-55--5-555-555---5~~~--5~~~--|
Ab-3-33-33--5-555-555---3~~~--5~~~--|
Eb----------3-333-333---------3~~~--|

Eb---------------|
Bb---------------|
Gb---------------|
Db-7-7-7777-7----|
Ab-7-7-7777-7x7--|
Eb-5-5-5555-5----|

Bridge 1 Pt.1 x1
Eb--------------------------------------|
Bb--------------------------------------|
Gb(        x2      )--------------------|
Db-7-7-7----77-7777---5-5-5555-55-5555--|
Ab-7-7-7x4--77-7777---5-5-5555-55-5555--|
Eb-5-5-5----55-5555---3-3-3333-33-3333--|

Eb--------------------|
Bb--------------------|
Gb--------------------|
Db-7-7-7777-777--5-5--|
Ab-7-7-7777-777--5-5--|
Eb-5-5-5555-555--3-3--|

Then:
*Bridge 1 Pt.2 x1 (Use Verse 1 Pt.2 x1)
*Chorus 3 Pt.1 x2
*Chorus 3 Pt.2 x1

Outro x1
Eb-----
Bb-----
Gb-----
Db--7--
Ab--7--
Eb--5--

Song Order:
*Verse 1 Pt.1 x1
*Verse 1 Pt.2 x1
*Chorus 1 Pt.1 x2
*Chorus 1 Pt.2 x1
*Verse 2 Pt.1 x1
*Verse 2 Pt.2 x1
*Chorus 2 Pt.1 x2
*Chorus 2 Pt.2 x1
*Bridge 1 Pt.1 x1
*Bridge 1 Pt.2 x1 (Use Verse 1 Pt.2 x1)
*Chorus 3 Pt.1 x2
*Chorus 3 Pt.2 x1
*Outro x1


Track 14: Walking Contradiction

Intro x1
Eb---------------|
Bb---------------|
Gb---------------|
Db-7-7-----7-----|
Ab-7-7x15--7x16--|
Eb-5-5-----5-----|

Verse 1 x8
Eb-----------------------|
Bb-----------------------|
Gb-------7---------------|
Db-7-7---7---5-5-77777---|
Ab-7-7-0-5-0-5-5-77777-0-|
Eb-5-5-0---0-3-3-55555-0-|

Then:
*Interlude 1 x2 (Use Verse Riff)
*Verse 2 x8

Chorus 1 x4
Eb--------------------|
Bb--------------------|
Gb-7-7----------------|
Db-7-7---555-7-7------|
Ab-5-5-0-555-7-7x7-0--|
Eb-----0-333-5-5---0--|

Then:
*Interlude 2 x2
*Verse 3 x8
*Chorus 3 x8
*Outro Pt.1 x3 (Use Verse Riff)

Outro Pt.2 x1
Eb---------------------------|
Bb---------------------------|
Gb-------7-------------------|
Db-7-7---7---5-5-7-7~~~~~~~--|
Ab-7-7-0-5-0-5-5-7-7~~~~~~~--|
Eb-5-5-0---0-3-3-5-5~~~~~~~--|

Song Order:
*Intro x1
*Verse 1 x8
*Interlude 1 x2 (Use Verse Riff)
*Verse 2 x8
*Chorus 1 x4
*Interlude 2 x2
*Verse 3 x8
*Chorus 3 x8
*Outro Pt.1 x3 (Use Verse Riff)
*Outro Pt.2 x1

Key:
~=Let Ring Out
.=Palm Mute
X=Mute Note/Scratch Note
/=Slide Up
\=Slide Down

Full Album Track Listing:
1.)Armatage Shanks
2.)Brat
3.)Stuck With Me
4.)Geek Stink Breath
5.)No Pride
6.)Bab's Uvula Who?
7.)86
8.)Panic Song
9.)Stuart And The Ave.
10.)Brain Stew
11.)Jaded
12.)Westbound Sign
13.)Tight Wad Hill
14.)Walking Contradiction

*And That's It...That's The Entire Green Day Album
"Insomniac", I Hope Everybody Enjoys This Full Length Album Tab.
Don't Forget To Rate And Comment If You Liked The Tab, And Comment Any
Corrections, I Welcome Corrections.

*Here's A Link To The Full Album, If You Would Like To
Play Along To The Songs: https://www.youtube.com/watch?v=DB402ZnLrU0
Suggest correction
Give kudos to tab author, rate the tab!
1 2 3 4 5
comments
print report bad tab
guest
You may want to rate the tab now too:
select rating
Please do not post tabs as comments. Select "correction" instead!