Oops, an error
Loading. Please wait.

Its Fuck Time Bass Tab

version 1
version 1

Whole song

Interactive

8,944 views 9 this week
2 commentsread comments
1 2 3 4 5
excellent!
x 14
add to favorites
launch autoscroll
font size
0
reset
guitar tuner
Autoscroll
slow
fast
+/-
esc
set tempo
stop
Help us to improve Ultimate-Guitar.com Take our survey!
×
Watch my bass cover: http://www.youtube.com/watch?v=orE9lZoFKjw

Intro x6

G|------------------------------------|
D|-----5------------------------------|
A|---5---5--7-------------------------|
E|------------------------------------|


Chorus

G|--------------------------------------------------------------------------|
D|----------2-2--4-2----------2-2--4-2--------------------------------------|
A|-0-0--4-4----------0-0--4-4-------------------2-2--4-2----------2-2--4-2--|
E|-------------------------------------0-0--4-4----------0-0--4-4-----------|

G|--------------------------------------------------------------------------|
D|----------2-2--4-2---------2-2--4-2---------------------------------------|
A|-0-0--4-4----------0-0--4-4------------2-2-2-2-2-2-2-2--14(x8)------------|
E|--------------------------------------------------------------------------|


Post-Chorus

G|--------------------------------------------------------------------------|
D|--------------------------------------------------------------------------|
A|------------------------------------------3(x8)--15(x5)-------------------|
E|--0-0-0-0-0-0--3-3-3-3-3-3--5-5-5-5-5-5-----------------------------------|

G|------------------------------------|
D|-----5------------------------------|
A|---5---5--7-------------------------|
E|------------------------------------|


Verse x5

G|------------------------------------|
D|-----5------------------------------|
A|---5---5--7-------------------------|
E|------------------------------------|


Chorus

G|--------------------------------------------------------------------------|
D|----------2-2--4-2----------2-2--4-2--------------------------------------|
A|-0-0--4-4----------0-0--4-4-------------------2-2--4-2----------2-2--4-2--|
E|-------------------------------------0-0--4-4----------0-0--4-4-----------|

G|--------------------------------------------------------------------------|
D|----------2-2--4-2---------2-2--4-2---------------------------------------|
A|-0-0--4-4----------0-0--4-4------------2-2-2-2-2-2-2-2--14(x8)------------|
E|--------------------------------------------------------------------------|



Post-Chorus

G|--------------------------------------------------------------------------|
D|--------------------------------------------------------------------------|
A|------------------------------------------3(x8)--15(x5)-------------------|
E|--0-0-0-0-0-0--3-3-3-3-3-3--5-5-5-5-5-5-----------------------------------|

G|------------------------------------|
D|-----5------------------------------|
A|---5---5--7-------------------------|
E|------------------------------------|


Verse x3

G|------------------------------------|
D|-----5------------------------------|
A|---5---5--7-------------------------|
E|------------------------------------|


Solo/chorus

G|--------------------------------------------------------------------------|
D|----------2-2--4-2----------2-2--4-2--------------------------------------|
A|-0-0--4-4----------0-0--4-4-------------------2-2--4-2----------2-2--4-2--|
E|-------------------------------------0-0--4-4----------0-0--4-4-----------|

G|--------------------------------------------------------------------------|
D|----------2-2--4-2---------2-2--4-2---------------------------------------|
A|-0-0--4-4----------0-0--4-4------------2-2-2-2-2-2-2-2--14(x8)------------|
E|--------------------------------------------------------------------------|



Post-chorus

G|--------------------------------------------------------------------------|
D|--------------------------------------------------------------------------|
A|------------------------------------------3(x8)---------------------------|
E|--0-0-0-0-0-0--3-3-3-3-3-3--5-5-5-5-5-5-----------------------------------|

G|--------------------------------------------------------------------------|
D|--------------------------------------------------------------------------|
A|------------------------------------------3(x8)--15(x18)------------------|
E|--0-0-0-0-0-0--3-3-3-3-3-3--5-5-5-5-5-5-----------------------------------|


G|------------------------------------|
D|-----5------------------------------|
A|---5---5--7-------------------------|
E|------------------------------------|


Outro x5

G|------------------------------------|
D|-----5------------------------------|
A|---5---5--7-------------------------|
E|------------------------------------|
Suggest correction
comments
print report bad tab
2 comments total.
0 reply
Mat Bonkers 58 wrote on January 30 2013, 04:04 pm

thx for your tab :)

0 reply
BassFreak98 72 wrote on February 16 2013, 11:15 pm

Spot on! Sweet bassline

guest
You may want to rate the tab now too:
select rating
Wanna post a correction for this tab? Suggest correction