Oops, an error
Loading. Please wait.

J A R Bass Tab

version 1
version 1

Whole song

1,232 views 1 this week
5 commentsread comments
1 2 3 4 5
worth learning
x 6
add to favorites
launch autoscroll
font size
0
reset
guitar tuner
Tab Pro tools
  • play this tab
  • loop segment
  • change instrument
  • show fretboard
  • metronome
×
Best way to learn
"J A R"
Autoscroll
slow
fast
+/-
esc
set tempo
stop
From: amagnan@bonita.cerf.fred.org
Subject: BTAB: J_A_R  by Green Day


This is that neet bass tab in the beginning of j.a.r., it's not perfect
but it sounds good
    This is that cool bass riff                                          
     
G-|----------------------------------------------------------------------
D-|---7------------------------------------------------------------------
A-|-55-0-----------------------------------------------------------------
E-|----------------------------------------------------------------------
    repeat this many times over                                          
                   
please write back if you use cuz I like to know if my posts are being
utilized, also, if you have any corrections or anything else.

 ---------------- 32.39.28N, 117.01.45W 
This E-Mail was written by Mushroom Head... He likes these quotes:
"All yer time gets wasted in my daze..." - Billie Joe Armstrong
"I hate it when people hate pot, that makes me mad!" - Tre Cool



comments
print report bad tab
5 comments total. Showing first comments.
0 reply
jackass-182 wrote on April 5 2002, 12:00 am

this is the right way:
G:
D:---7----7----7----7-
A:-55-5-00-0------00-0
E:-----------00-0

0 reply
Kurt_Cobain wrote on May 7 2002, 12:00 am

Yep he's right that's how I play it

0 reply
bass_man_dan wrote on May 3 2005, 12:00 am

dis tab is wieeeeerd

I want to post or [tab]
guest
You may want to rate the tab now too:
select rating
Please do not post tabs as comments. Select "correction" instead!