Oops, an error
Loading. Please wait.

J A R Bass Tab

version 2
version 2
7,384 views 18 this week
7 commentsread comments
1 2 3 4 5
accurate
x 8
add to favorites
launch autoscroll
font size
0
reset
guitar tuner
Autoscroll
slow
fast
+/-
esc
set tempo
stop
Help us to improve Ultimate-Guitar.com Take our survey!
×
          Song: J.A.R
          Band: Green Day
          Album: Angus Soundtrack
          Tabbed by: Loser Boy Bawb (greenkorn_182@hotmail.com)
          
          Hey. I've seen this bass intro tabbed out about 10 different times, 
          and no one seems to get it right, so, here's the correct version.
          
          Tune down a half step:
          
          Intro:
          Gb|-----7-------7-------7-------7--------7-------7-------7---------- 
          Db|-5-5---7-------7-------7-------7--5-5---7-------7-------7--------
          Ab|---------5-5-------------5-5--------------5-5--------------5-----
          Eb|-----------------5-5------------------------------5-5--------5--3
          
          Riff A:
          Gb|-------------------------------------------------------------- 
          Db|------------------5p4----------------------------------------- 
          Ab|--------------5h7-----5h7------------5-5-5-------------------- 
          Eb|3-3-3-3-3-5-5--------------3-3-3-3-3-------5-5-5--------------
          
          Riff B:
          Gb|-------------------------------------------------------------- 
          Db|-------------------------------------------------------------- 
          Ab|-------------------------------------5-5-5-------------------- 
          Eb|3-3-3-3-3-5-5-5-5-5-5-5-5--3-3-3-3-3-------5-5-5--------------
          
          Chorus:
          Gb|----------------------------------------------------------------
          Db|----------------------------------------------------------------
          Ab|-----------------5-5-5-5-5-5-5-5-------------------------5-5-5-5
          Eb|-3-3-3-3-3-3-3-3-----------------5-5-5-5-5-5-5-5-3-3-3-3--------
          
          Cont'd
          Gb|--------------------------------------------------------------- 
          Db|---------------------------------------------------------------
          Ab|---------------------------------------------------------------
          Eb|5-5-5-5-5-5-5-5------------------------------------------------
          
          Riff C
          Gb|--------------------------------------------------------------- 
          Db|--------------------------------------------------------------- 
          Ab|--------5-5-5-5---------5-5-5-5---------5-5-5-5---------5------ 
          Eb|3-3-3-3---------5-5-5-5---------3-3-3-3---------5-5-5-5---5-3--
          
          Riff D
          Gb|--------------------------------------------------------------- 
          Db|--------------------------------------------------------------- 
          Ab|--------5-5-5-5---------5-5-5-5---------5-5-5-5---------5-5-5-5 
          Eb|3-3-3-3---------5-5-5-5---------3-3-3-3---------5-5-5-5--------
          
          Bridge
          Gb|--------------------------------------------------------------- 
          Db|--------------------------------------------------------------- 
          Ab|3-3-3-3-3-3-------------5-5-5-5-5-5-------------3-3-3-3-3-3---- 
          Eb|------------3-3-3-3-3-3-------------5-5-5-5-5-5---------------- 
          
          
          
          Cont'd
          Gb|--------------------------------------------------------------- 
          Db|--------------------------------------------------------------- 
          Ab|-------------------------R---5--------------------------------- 
          Eb|3-3-3-3-3-3-5-5-5-5-5-5--------5-3----------------------------- 
          
          Intro
          Riff A x2
          Verse  x2: Riff B
          	     Riff A
          	     Riff B
          	     Riff A
          Chorus
          Riff C
          Verse  x2
          Chorus
          Riff D x2
          Bridge
          Riff A x4
          Chorus
          Riff D x2
          Intro 
          End on Ab-5
          artist:Greenday
          song:J. A. R.
          Album:angus soundtrack
          
          i strongly suggest using a pick for this song...its easier and sounds a lot better 
          
          intro:
          G---------------------------------------------
          D----7----7---7----7------7----7----7----7-----
          A-55---00--00---00---0-55---00---00---00-------
          E----------------------------------------------
          reapeat a few times then:
          Verse(main riff)
          
          G--------------------------------------------------------
          D---------------------------------------------------------
          A--5------------------------55------------------------------
          E----5--33333-5555555-33333---5555------------------------
          
          this isnt the whole song..but its most of it...ill get the rest on here later 
          unless some1 else does 
          email me with corrections or feedback
          bendawg182@hotmail.com
Suggest correction
What's this?
You can suggest a correction to this tab. Community and Mods will review your correction and vote to approve or reject it.
comments
print report bad tab
7 comments total. Showing first comments.
0 reply
Liam 5,101 wrote on March 9 2006, 06:04 am

ur actually making me cry! ur intro is wrong 2! can no1 tab bass!?

0 reply
Zildjian123 155 wrote on April 27 2006, 05:31 pm

Tab it yourself then Liam! Atleast he f@#$in tried to.

0 reply
living legend 33 wrote on May 9 2007, 02:33 pm

the tab sound ok as it is but if you play each note in the intro on 4 and 6 it sounds alot better

guest
You may want to rate the tab now too:
select rating
Please do not post tabs as comments. Select "correction" instead!