Oops, an error
Loading. Please wait.

J A R Bass Tab

version 3
version 3

Whole song

4,925 views 9 this week
no commentswrite comment
1 2 3 4 5
excellent!
x 6
add to favorites
launch autoscroll
font size
0
reset
guitar tuner
Tab Pro tools
  • play this tab
  • loop segment
  • change instrument
  • show fretboard
  • metronome
×
Best way to learn
"J A R"
Autoscroll
slow
fast
+/-
esc
set tempo
stop
Difficulty
intermediate
Intro:
G|-----6-------6-------6-------6--------6-------6-------6-----------|
D|-4-4---6-------6-------6-------6--4-4---6-------6-------6---------|
A|---------4-4-------------4-4--------------4-4--------------4------|
E|-----------------4-4------------------------------4-4--------4--2-|
Riff A:
G|--------------------------------------------------------------|
D|------------------4p3-----------------------------------------|
A|--------------4h6-----4h6------------4-4-4--------------------|
E|2-2-2-2-2-4-4--------------2-2-2-2-2-------4-4-4--------------|
Riff B:
G|--------------------------------------------------------------|
D|--------------------------------------------------------------|
A|-------------------------------------4-4-4--------------------|
E|2-2-2-2-2-4-4-4-4-4-4-4-4--2-2-2-2-2-------4-4-4--------------|
Chorus:
G|-----------------------------------------------------------------|
D|-----------------------------------------------------------------|
A|-----------------4-4-4-4-4-4-4-4-------------------------4-4-4-4-|
E|-2-2-2-2-2-2-2-2-----------------4-4-4-4-4-4-4-4-2-2-2-2---------|
Cont'd
G|---------------------------------------------------------------|
D|---------------------------------------------------------------|
A|---------------------------------------------------------------|
E|4-4-4-4-4-4-4-4------------------------------------------------|
Riff C
G|---------------------------------------------------------------|
D|---------------------------------------------------------------|
A|--------4-4-4-4---------4-4-4-4---------4-4-4-4---------4------|
E|2-2-2-2---------4-4-4-4---------2-2-2-2---------4-4-4-4---4-2--|
Riff D
G|----------------------------------------------------------------|
D|----------------------------------------------------------------|
A|--------4-4-4-4---------4-4-4-4---------4-4-4-4---------4-4-4-4-|
E|2-2-2-2---------4-4-4-4---------2-2-2-2---------4-4-4-4---------|
Bridge
G|---------------------------------------------------------------|
D|---------------------------------------------------------------|
A|2-2-2-2-2-2-------------4-4-4-4-4-4-------------2-2-2-2-2-2----|
E|------------2-2-2-2-2-2-------------4-4-4-4-4-4----------------|
Cont'd
G|----------------------------------------------------------------|
D|----------------------------------------------------------------|
A|----------------------------4-----------------------------------|
E|2-2-2-2-2-2-4-4-4-4-4-4--------4-2------------------------------|
Intro
Riff A x2
Verse  x2: Riff B
Riff A
Riff B
Riff A
Chorus
Riff C
Verse  x2
Chorus
Riff D x2
Bridge
Riff A x4
Chorus
Riff D x2
Intro
End on Ab-5
comments
print report bad tab
I want to post or [tab]
guest
You may want to rate the tab now too:
select rating
Please do not post tabs as comments. Select "correction" instead!