Oops, an error
Loading. Please wait.

J A R Bass Tab

version 5
version 5
1,318 views 1 this week
no commentswrite comment
1 2 3 4 5
please rate
add to favorites
launch autoscroll
font size
0
reset
guitar tuner
Autoscroll
slow
fast
+/-
esc
set tempo
stop
Help us to improve Ultimate-Guitar.com Take our survey!
×
Contributor
Difficulty
intermediate
Hey people! My first tab, so it might be off. 
Tuning: Standard
P.S: I figured out how to play this song by playing along to the song.


Intro
G|--6---6---6---6---6---6---6--|---|
D|44-4------------44-4---------|---|
A|----44-4----44-4----44-4-----|4--|
E|--------44-4------------44-4-|--4|

Pre Verse
G|-------------------------------|
D|-------------------------------|
A|---------468646-------4-4------|  x2
E|22222-44--------22222-----4-44-|

Verse
G|---------------------------------------------------------|
D|---------------------------------------------------------|
A|-------------------44---------------468646-------44------| x2
E|22222-444444-22222----4-44-22222-44--------22222----4-44-|

Chorus
G|----------------------------------------------------------|
D|44444444444-----------------------------------------------|
A|------------44444444444-------------------44444-----------|
E|------------------------44444444444-22222-------444444444-|

Bridge
G|----------------------------------------------------------------|---|
D|----------------------------------------------------------------|---|
A|22222222----------44444444----------22222222--------------------|4--|
E|---------22222222----------44444444----------22222222-444444444-|--4|

Guitar Solo
G|------------------------------|
D|------------------------------|
A|---------468646-------44------| x4
E|22222-44--------22222----4-44-|

Outro
G|--6---6---6---6---6---6---6---6---6---6---6---6---6---6---6-|--|
D|44-4------------44-4------------44-4------------44-4--------|--|
A|----44-4----44-4----44-4----44-4----44-4----44-4----44-4----|4~|
E|--------44-4------------44-4------------44-4------------44-4|--|

Playing Order:

Intro
Pre Verse
Verse
Chorus
Intro
Verse
Chorus
Intro x2
Bridge
Guitar Solo
Chorus
Intro x2
Outro


comments
We did not receive enough feedback on this tab! Please rate:
print report bad tab
1 2 3 4 5
I want to post or [tab]
guest
You may want to rate the tab now too:
select rating
Please do not post tabs as comments. Select "correction" instead!