Oops, an error
Loading. Please wait.

Jackass Bass Tab

version 1
version 1

Whole song

Interactive

1,663 views 6 this week
no commentswrite comment
1 2 3 4 5
accurate
x 3
add to favorites
launch autoscroll
font size
0
reset
guitar tuner
Autoscroll
slow
fast
+/-
esc
set tempo
stop
Help us to improve Ultimate-Guitar.com Take our survey!
×
Author
Difficulty
novice
-----------------------------------------------------------------------------
			     Jackass - Green Day
-----------------------------------------------------------------------------

Tabbed By : jamesbcfc
e-mail: james_bcfc@hotmail.com

Tuning: Standard

I think this is mostly correct, but give me slack as it was tabbed by ear. Not sure of 
parts, but by all means drop us an e-mail for improvements

After guitar intro
Intro
G|-----------------------------|
D|-----------------------------|
A|-0-5-5-5-5-5-5-5-5-----------|
E|-----------------------------|

The First time only
Intro Riff (one time only)
G|-------------------------------------------|
D|-------------------------------------------|
A|---------------3-3-------------------------|
E|-0-3-3-3-3-1-1-----------------------------|

Riff 1 (After intro riff)
G|-------------------------------------------|
D|-------------------------------------------|
A|---------------3-3-------------------------|
E|---3-3-3-0-1-1-----------------------------|

Riff 2 (After intro riff) e.g "To know you is to hate you,"
G|-------------------------------------------------------------|
D|-------------------------------------------------------------|
A|------------------------------------5--5-5-5-5--2-3-3-2-2-0-0|
E|--3-3-3-3-3-3-3-3-3-3-3-3-3-3-3-3----------------------------|

Riff 2 (Continued)
G|-------------------------------------------------------------|
D|-------------------------------------------------------------|
A|-2-3-3-2-2-0-0-2-3-3-2-2-0-0-0-0-5-5-5-5-5-5-5-5-------------|
E|-------------------------------------------------------------|

Riff 3 e.g "Well everybody loves a joke"
G|-------------------------------------------------------------|
D|-------------------------------------------------------------|
A|-----------------2-2-2-2-2-2-2-2-3-3-3-3-3-3-3-3-------------|
E|-0-0-0-0-0-0-0-0---------------------------------------------|

Riff 3 Continued
G|-------------------------------------------------------------|
D|-------------------------------------------------------------|
A|-------------------------------------------------------------|
E|--3-3-3-3-2-2-2-2-0-0-0-0-0-0-0-0----------------------------|

Riff 3 Continued
G|-------------------------------------------------------------|
D|-------------------------------------------------------------|
A|-2-2-2-2-2-2-2-2-3-3-3-3-3-3-3-3-5-5-5-5-5-5-5-5-------------|
E|-------------------------------------------------------------|

Riff over the Sax solo is Riff 1 followed by Riff 4 (Bellow)
G|-------------------------------------------------------------|
D|-------------------------------------------------------------|
A|-5-5-5-5--3-3-2-3-AND ON THE LAST TIME>>>>5-5-5-5-5-5-5-5-5-5|
E|-------------------------------------------------------------|

Outro Riff is an alternation of Riff 2, and instead of going 2-3-3-2-2-0-0,
it goes:
G|-------------------------------------------------------------|
D|-------------------------------------------------------------|
A|-3-2-0-------------------------------------------------------|
E|-------5-3---------------------------------------------------|
Suggest correction
Give kudos to tab author, rate the tab!
1 2 3 4 5
comments
print report bad tab
guest
You may want to rate the tab now too:
select rating
Wanna post a correction for this tab? Suggest correction