Oops, an error
Loading. Please wait.

Jesus Of Suburbia Bass Tab

version 3
version 3
109,424 views 216 this week
41 commentsread comments
1 2 3 4 5
excellent!
x 174
add to favorites
launch autoscroll
font size
0
reset
guitar tuner
Autoscroll
slow
fast
+/-
esc
set tempo
stop
Help us to improve Ultimate-Guitar.com Take our survey!
×
Author
Song: Jesus Of Suburbia
Band: Green Day
Album: American Idiot
Bassist: Mike Dirnt
Tabbed by: Nodnud
Tuning: Standard Tuning (GDAE)
I'm pretty sure this is 100% correct. If there's any problems or corrections, please 
me at i_am_a_giant_fish@hotmail.com
Please rate, thanks!

1) Jesus Of Suburbia

  [Riff 1]

G|[----------------------------------------------------------------|
D|[------------------------------—---------------------------------|
A|[-4-4-4-4---1-1-1-1----------------------------------------------| X2
E|[---------------------222222222222222222/444444444444444444------|


  [Riff 2]

G|[----------------------------------------------------------------|
D|[----------------------------------------------------------------|
A|[----------------------------------------------------------------|
E|[-2-2-2222-44444444-2-2-2222-44444444-2-2-2222-44444-------------|


  [Riff 3]

G|[----------------------------------------------------------------|
D|[----------------------------------------------------------------|
A|[-4-4-4----------------------------------------------------------| x2
E|[-------4-4-4-2-2222222------------------------------------------|


  [Riff 1]

G|[----------------------------------------------------------------|
D|[------------------------------—---------------------------------|
A|[-4-4-4-4---1-1-1-1----------------------------------------------| X2
E|[---------------------222222222222222222/444444444444444444------|


  [Riff 2]

G|[----------------------------------------------------------------|
D|[----------------------------------------------------------------|
A|[----------------------------------------------------------------|
E|[-2-2-2222-44444444-2-2-2222-44444444-2-2-2222-44444-------------|


  [Riff 3]

G|[----------------------------------------------------------------|
D|[----------------------------------------------------------------|
A|[-4-4-4----------------------------------------------------------| x2
E|[-------4-4-4-2-2222222------------------------------------------|

  [Riff 1]

G|[----------------------------------------------------------------|
D|[------------------------------—---------------------------------|
A|[-4-4-4-4---1-1-1-1----------------------------------------------| X2
E|[---------------------222222222222222222/444444444444444444------|

  then..
G|[----------------------------------------------------------------|
D|[----------------------------------------------------------------|
A|[-4-4-4-4-------------1-1-1--------------------------------------|
E|[-----------1-1-1-1-----------4-4-4-2~------4~-------------------|

2) City Of The Damned
(There isn't actually any bass in riff 1 I don't think, but it still sounds good with this)


  [Riff 1]

G|[-----------------------------------------------------------------|
D|[-----------------------------------------------------------------|
A|[-44444-33333-11111-----------------------------------------------| x2
E|[-------------------44444-2-2-2-2-2-2-2-2--4-4-4-4-4-4-4-4--------|


  [Riff 2]

G|[-----------------------------------------------------------------|
D|[-----------------------------------------------------------------|
A|[-11111-------44444-------1-1-1-1---------------------------------| X2
E|[-------44444-------22222---------4-4-4-4-2-2-2-2-2-2-2-2---------|


  [Riff 1]

G|[-----------------------------------------------------------------|
D|[-----------------------------------------------------------------|
A|[-44444-33333-11111-----------------------------------------------| x2
E|[-------------------44444-2-2-2-2-2-2-2-2--4-4-4-4-4-4-4-4--------|


  [Riff 2]

G|[-----------------------------------------------------------------|
D|[-----------------------------------------------------------------|
A|[-11111-------44444-------1-1-1-1---------------------------------| X2
E|[-------44444-------22222---------4-4-4-4-2-2-2-2-2-2-2-2---------|

  Then..
G|[--------------------------------------------------------------------------------|
D|[--------------------------------------------------------------------------------|
A|[-11111-------44444-------1-1-1-1------------------------------------------------|
E|[-------44444-------22222---------4-4-4-4-222222222222/141414141414141414141414\-|

  3) I Don't Care
G|[-----------------------------------------------------------------|
D|[-----------------------------------------------------------------|
A|[------4-4-4------4-4-4------4-4-4--------------------------------|
E|[-4-44-------4-44-------2-22-------4-4-4-4444---------------------|
X5

G|[-----------------------------------------------------------------|
D|[-----------------------------------------------------------------|
A|[-----------------------------------------------------------------|
E|[-2-4-------------------------------------------------------------|
x1

G|[-----------------------------------------------------------------|
D|[-----------------------------------------------------------------|
A|[-4-4-44-4-44-4-4-------------------------------------------------|
E|[------------------5-4--------------------------------------------|
X12

G|[-----------------------------------------------------------------|
D|[-----------------------------------------------------------------|
A|[--------------4--------------------------------------------------|
E|[-22222222-4444--4------------------------------------------------|
X3

G|[-----------------------------------------------------------------|
D|[-----------------------------------------------------------------|
A|[-----------------------------------------------------------------|
E|[-22222222-444424-------------------------------------------------|

G|[-----------------------------------------------------------------|
D|[-----------------------------------------------------------------|
A|[-4-4-44-4-44-4-4-------------------------------------------------|
E|[------------------4-2--------------------------------------------|
x4

G|[-----------------------------------------------------------------|
D|[-----------------------------------------------------------------|
A|[-4-4-4-4---------------------------------------------------------|
E|[---------444~----------------------------------------------------|


  4) Dearly Beloved
G|[-----------------------------------------------------------------|
D|[------------------------------—----------------------------------|
A|[-----------------------------------------------------------------|
E|[-444444444444444444444444----------------------------------------|
X1

G|[------------------------------------------------------------------|
D|[------------------------------—-----------------------------------|
A|[----------33333333-44444444------6666-----------------------------|
E|[-44444444-------------------4444----------------------------------|
X5

G|[----------------------------------------------------------------|
D|[------------------------------—---------------------------------|
A|[----------------------------------------------------------------|
E|[-44444444-------------------------------------------------------|


  5) Tales Of Another Broken Home
G|[----------------------------------------------------------------|
D|[------------------------------—---------------------------------|
A|[--------------4-------------------------------------------------|
E|[-4-44-44-44-2---------------------------------------------------|
x4

G|[----------------------------------------------------------------|
D|[------------------------------—---------------------------------|
A|[----------------4-----------------------------------------------|
E|[-4-44-44-44-4-2-------------------------------------------------|
x7

G|[----------------------------------------------------------------|
D|[------------------------------—---------------------------------|
A|[----------------------------------------------------------------|
E|[-4-44-44-44-4-2-------------------------------------------------|

G|[----------------------------------------------------------------|
D|[------------------------------—---------------------------------|
A|[-4---4---4---6---6---6------------------------------------------|
E|[---4---4---4---4---4---4----------------------------------------|
x2

G|[----------------------------------------------------------------|
D|[------------------------------—---------------------------------|
A|[----------------4-----------------------------------------------|
E|[-4-44-44-44-4-2-------------------------------------------------|
x7

G|[----------------------------------------------------------------|
D|[------------------------------—---------------------------------|
A|[----------------------------------------------------------------|
E|[-4-44-44-44-4-2-------------------------------------------------|

G|[----------------------------------------------------------------|
D|[------------------------------—---------------------------------|
A|[-4---4---4---6---6---6------------------------------------------|
E|[---4---4---4---4---4---4----------------------------------------|
x4

G|[----------------------------------------------------------------|
D|[------------------------------—---------------------------------|
A|[--------------4-------------------------------------------------|
E|[-4-44-44-44-2---------------------------------------------------|
x2

G|[----------------------------------------------------------------|
D|[------------------------------—---------------------------------|
A|[----------------4-----------------------------------------------|
E|[-4-44-44-44-4-2-------------------------------------------------|
x7

G|[----------------------------------------------------------------|
D|[------------------------------—---------------------------------|
A|[----------------------------------------------------------------|
E|[-4-44-44-44-4-2-------------------------------------------------|

G|[----------------------------------------------------------------|
D|[------------------------------—---------------------------------|
A|[-4---4---4---6---6---6------------------------------------------|
E|[---4---4---4---4---4---4----------------------------------------|
x2


[PIANO INTERLUDE]

G|[----------------------------------------------------------------|
D|[------------------------------—---------------------------------|
A|[----------------4-----------------------------------------------|
E|[-4-44-44-44-4-2-------------------------------------------------|
x4

G|[----------------------------------------------------------------|
D|[------------------------------—---------------------------------|
A|[--------------4-------------------------------------------------|
E|[-4-44-44-44-2---------------------------------------------------|
x2

G|[----------------------------------------------------------------|
D|[------------------------------—---------------------------------|
A|[----------------------------------------------------------------|
E|[-4-(hold note)--------------------------------------------------|

If you play the way I've tabbed it, it should take you through the entire song.
Please Rate! Thanks



************************************

| /  Slide up
| \  Slide down
| ~  Vibrato

************************************
Suggest correction
comments
print report bad tab
41 comments total. Showing first comments. show 1 bad comment
+4 reply
Nodnud 110 wrote on February 25 2005, 12:00 am

For Tales Of Another Broken Home for the opening riff it sounds better if you play:

G|------------------------
D|-6-66-66-6-6-66---------
A|------------------4-----
E|----------------2-------

+1 reply
yucrying 50 wrote on September 2 2005, 12:00 am

dearly beloved the beginig is palm muted

guest
You may want to rate the tab now too:
select rating
Please do not post tabs as comments. Select "correction" instead!