Oops, an error
Loading. Please wait.

Jesus Of Suburbia Tab

version 6
45,785 views 162 this week
2 commentsread comments
1 2 3 4 5
x 31
add to favorites
launch autoscroll
font size
0
reset
how to read this tab
guitar tuner
Autoscroll
slow
fast
+/-
esc
set tempo
stop
Help us to improve Ultimate-Guitar.com Take our survey!
×
Author
-----------------------------------------------------------------------------
                        JESUS OF SUBURBIA - Green Day
-----------------------------------------------------------------------------

Tabbed by: Syn_August


Tuning: Standard (EADGBe)



In the Key of: C# (Parts I, II, and III)
               G# (Parts IV and V)





I. Jesus of Suburbia (0:00)

                                                                             -
       C#5                                    A#5                            |
e|-----------------------------------------------------------------------|   |
B|-----------------------------------------------------------------------|   |
G|---6-6-6-6-------------------------------------------------------------|   |
D|---6-6-6-6--------------------------------8-8-8-8----------------------|   |
A|---4-4-4-4--------------------------------8-8-8-8----------------------|   |
E|------------------------------------------6-6-6-6----------------------|   |
                                                                             |
             I'm the son of rage and love,          the Jesus of Suburbia    |
             Get my television fix,                 sitting on my crucifix   |
                                                                             |
                                                                             |
                   F#5                                G#5                    |
e|------------------------------------------------------------------------|  |
B|------------------------------------------------------------------------|  |
G|------------------------------------------------------------------------|  |
D|-----------4-4-4-4-4-4-4-4--------------------6-6-6-6-6-6-6-6-----------|  |
A|-----------4-4-4-4-4-4-4-4--------------------6-6-6-6-6-6-6-6-----------|  |
E|-----------2-2-2-2-2-2-2-2--------------------4-4-4-4-4-4-4-4-----------|  |
                                                                             |
         The bible of "none of the above," on a steady diet of               |
      The living room or my private womb, while the moms and Brads are away  |
                                                                             |
                                                                             |
       C#5                                    A#5                            |
e|------------------------------------------------------------------------|  |
B|------------------------------------------------------------------------|  |
G|---6-6-6-6--------------------------------------------------------------|  |
D|---6-6-6-6--------------------------------8-8-8-8-----------------------|  |
A|---4-4-4-4--------------------------------8-8-8-8-----------------------|  |
E|------------------------------------------6-6-6-6-----------------------|  |
                                                                             |
            Soda pop and Ritalin,                  no one ever died for my   |
            To fall in love and fall in debt,      to alcohol and cigarettes |
                                                                             |
                                                                             |
                   F#5                                G#5                    |
e|------------------------------------------------------------------------|  |
B|------------------------------------------------------------------------|  |
G|------------------------------------------------------------------------|  |
D|-----------4-4-4-4-4-4-4-4--------------------6-6-6-6-6-6-6-6-----------|  |
A|-----------4-4-4-4-4-4-4-4--------------------6-6-6-6-6-6-6-6-----------|  |  x2 (Repeat)
E|-----------2-2-2-2-2-2-2-2--------------------4-4-4-4-4-4-4-4-----------|  |
                                                                             |
    Sins in hell, as far as I can tell, at least the ones I got away with    |
        And Mary Jane, to keep me insane, doing someone else's cocaine       |
                                                                             |
                                                                             |
                   F#5               G#5             F#5           G#5       |
e|------------------------------------------------------------------------|  |
B|------------------------------------------------------------------------|  |
G|------------------------------------------------------------------------|  |
D|--------------4-4-4-4-4---------6-6-6-6-6-------4-4-4-4-4-----6-6-6-6-6-|  |
A|--------------4-4-4-4-4---------6-6-6-6-6-------4-4-4-4-4-----6-6-6-6-6-|  |
E|--------------2-2-2-2-2---------4-4-4-4-4-------2-2-2-2-2-----4-4-4-4-4-|  |
                                                                             |
   And there's nothing wrong with me,     this is how I'm supposed to be     |
                                                                             |
                                                                             |
            F#5             G#5                      C#5        G#5          |
e|------------------------------------------------------------------------|  |
B|------------------------------------------------------------------------|  |
G|---------------------------------------------------6-6------------------|  |
D|-------4-4-4-4-4-------6-6-6-6-6-------------------6-6-------6-6-6------|  |
A|-------4-4-4-4-4-------6-6-6-6-6-------------------4-4-------6-6-6------|  |
E|-------2-2-2-2-2-------4-4-4-4-4-----------------------------4-4-4------|  |
                                                                             |
    In a land of make believe, that don't believe in me                      |
                                                                             |
                                                                             |
              F#5            C#5    G#5           F#5                        |
e|------------------------------------------------------------------------|  |
B|------------------------------------------------------------------------|  |
G|---------------------------6-6------------------------------------------|  |
D|------4-4-4-4-4-4-4-4------6-6---6-6-6----4-4-4-4-4-4-4-4---------------|  |
A|------4-4-4-4-4-4-4-4------4-4---6-6-6----4-4-4-4-4-4-4-4---------------|  |
E|------2-2-2-2-2-2-2-2------------4-4-4----2-2-2-2-2-2-2-2---------------|  |
                                                                             -


        C#5         A#5               F#5                 G#5
e|------------------------------------------------------------------------|
B|------------------------------------------------------------------------|
G|----6-6-6-6-------------------------------------------------------------|
D|----6-6-6-6-----8-8-8-8-------4-4-4-4-4-4-4-4-----6-6-6-6-6-6-6-6-------|
A|----4-4-4-4-----8-8-8-8-------4-4-4-4-4-4-4-4-----6-6-6-6-6-6-6-6-------|
E|----------------6-6-6-6-------2-2-2-2-2-2-2-2-----4-4-4-4-4-4-4-4-------|


        C#5          F5          A#5     G#5
e|----------------------------------------------------|
B|----------------------------------------------------|
G|----6-6-6-6-----------------------------------------|
D|----6-6-6-6-----3-3-3-3-------8-8-8---6-6-6---------|
A|----4-4-4-4-----3-3-3-3-------8-8-8---6-6-6---------|
E|----------------1-1-1-1-------6-6-6---4-4-4---------|





II. City of the Damned (1:51)


        F#5     G#5
e|------------------------|
B|------------------------|
G|------------------------|
D|-------4-------6--------|
A|-------4-------6--------|
E|-------2-------4--------|


(**The first part of each verse is actually played by a piano, but I've tabbed it out 
for the guitar)

            C#5                         C5                                   -
e|------------------------------------------------------------------------|  |
B|------------------------------------------------------------------------|  |
G|-----------6--------------------------5---------------------------------|  |
D|-----------6--------------------------5---------------------------------|  |
A|-----------4--------------------------3---------------------------------|  |
E|------------------------------------------------------------------------|  |
                                                                             |
    At the center of the Earth in the parking lot, at the                    |
         I read the graffiti in the bathroom stall, like the                 |
                                                                             |
                                                                             |
     C#5              G#5                  F#5                 G#5           |
e|------------------------------------------------------------------------|  |
B|------------------------------------------------------------------------|  |
G|----6-------------------------------------------------------------------|  |
D|----6----------------6-------------4-4-4-4-4-4-4-4-----6-6-6-6-6-6-6-6--|  |
A|----4----------------6-------------4-4-4-4-4-4-4-4-----6-6-6-6-6-6-6-6--|  |
E|---------------------4-------------2-2-2-2-2-2-2-2-----4-4-4-4-4-4-4-4--|  |
                                                                             |
    Seven Eleven where I was taught, the motto was just a lie                |
  Holy Scriptures of the shopping mall, and so it seemed to confess:         |
                                                                             |
                                                                             |
            C#5                    C5                                        |
e|------------------------------------------------------------------------|  |
B|------------------------------------------------------------------------|  |
G|------------------------------------------------------------------------|  |
D|------------------------------------------------------------------------|  |
A|-----------4---------------6--4---3-------------------------------------|  |
E|------------------------------------------------------------------------|  |
                                                                             |
    It says home is where the heat is, but what a shame, 'cause              |
        It didn't say much, but it only confirmed that the                   |
                                                                             |
                                                                             |
      A#5                      G#5                                           |
e|------------------------------------------------------------------------|  |
B|------------------------------------------------------------------------|  |
G|------------------------------------------------------------------------|  |
D|------------------------------------------------------------------------|  |
A|-----1-----------------3--1---------------------------------------------|  |
E|------------------------------4-----------------------------------------|  |
                                                                             |
    Everyone's heart doesn't beat the same                                   |
    Center of the Earth is the end of the world                              |
                                                                             |
                                                                             |
              F#5                     G#5                                    |
e|------------------------------------------------------------------------|  |
B|------------------------------------------------------------------------|  |
G|------------------------------------------------------------------------|  |
D|------4-4-4-4-4-4-4-4---------6-6-6-6-6-6-6-6---------------------------|  |
A|------4-4-4-4-4-4-4-4---------6-6-6-6-6-6-6-6---------------------------|  |  x2 (Repeat)
E|------2-2-2-2-2-2-2-2---------4-4-4-4-4-4-4-4---------------------------|  |
                                                                             |
            It's beating out of time                                         |
        And I could really care less                                         |
                                                                             |
                                                                             |
         A#5               G#5               C#5               F#5           |
e|------------------------------------------------------------------------|  |
B|------------------------------------------------------------------------|  |
G|-------------------------------------6-6-6-6-6-6-6-6--------------------|  |
D|-8-8-8-8-8-8-8-8---6-6-6-6-6-6-6-6---6-6-6-6-6-6-6-6---4-4-4-4-4-4-4-4--|  |
A|-8-8-8-8-8-8-8-8---6-6-6-6-6-6-6-6---4-4-4-4-4-4-4-4---4-4-4-4-4-4-4-4--|  |
E|-6-6-6-6-6-6-6-6---4-4-4-4-4-4-4-4---------------------2-2-2-2-2-2-2-2--|  |
                                                                             |
              City of the dead,   at the end of another lost highway       |
                                                                             |
                                                                             |
        A#5        G#5               F#5                                     |
e|------------------------------------------------------------------------|  |
B|------------------------------------------------------------------------|  |
G|------------------------------------------------------------------------|  |
D|----8-8-8-8----6-6-6-6-------4-4-4-4-4-4-4-4----------------------------|  |
A|----8-8-8-8----6-6-6-6-------4-4-4-4-4-4-4-4----------------------------|  |
E|----6-6-6-6----4-4-4-4-------2-2-2-2-2-2-2-2----------------------------|  |
                                                                             |
           Signs misleading to nowhere                                       |
                                                                             |
                                                                             |
         A#5               G#5               C#5               F#5           |
e|------------------------------------------------------------------------|  |
B|------------------------------------------------------------------------|  |
G|-------------------------------------6-6-6-6-6-6-6-6--------------------|  |
D|-8-8-8-8-8-8-8-8---6-6-6-6-6-6-6-6---6-6-6-6-6-6-6-6---4-4-4-4-4-4-4-4--|  |
A|-8-8-8-8-8-8-8-8---6-6-6-6-6-6-6-6---4-4-4-4-4-4-4-4---4-4-4-4-4-4-4-4--|  |
E|-6-6-6-6-6-6-6-6---4-4-4-4-4-4-4-4---------------------2-2-2-2-2-2-2-2--|  |
                                                                             |
              City of the damned,     lost children with dirty faces today   |
                                                                             |
                                                                             |
        A#5        G#5               F#5                                     |
e|------------------------------------------------------------------------|  |
B|------------------------------------------------------------------------|  |
G|------------------------------------------------------------------------|  |
D|----8-8-8-8----6-6-6-6-------4-4-4-4-4-4-4-4----------------------------|  |
A|----8-8-8-8----6-6-6-6-------4-4-4-4-4-4-4-4----------------------------|  |
E|----6-6-6-6----4-4-4-4-------2-2-2-2-2-2-2-2----------------------------|  |
                                                                             |
          No one really seems to care                                        |
                                                                             -





III. I Don't Care (3:42)


       G#5     C#5     G#5     C#5       F#5        C#5       G#5
e|------------------------------------------------------------------------|
B|---------------------------6-4-------7-7-7-7---6-4-----4----4/9---------|
G|------------6-6-6---------------6-------------------6-------------------|
D|---6-6-6-6---------6-6-6-6----------------------------------------------|
A|------------------------------------------------------------------------|
E|------------------------------------------------------------------------|

  (Hey!)

                                                                             -
       G#5          C#5           G#5         C#5                            |
e|------------------------------------------------------------------------|  |
B|------------------------------------------------------------------------|  |
G|-----------------6-6-6---------------------6-6-6------------------------|  |
D|---6-6-6-6-------6-6-6--------6-6-6-6------6-6-6------------------------|  |
A|---6-6-6-6-------4-4-4--------6-6-6-6------4-4-4------------------------|  |
E|---4-4-4-4--------------------4-4-4-4-----------------------------------|  |
                                                                             |
     I don't care if you don't, I don't care if you don't,                   |
                                                                             |  x4 (Repeat)
       F#5           C#5                G#5                                  |
e|-----------------------------------------------------------|               |
B|-----------------------------------------------------------|               |
G|------------------6-6-6------------------------------------|               |
D|-----4-4-4--------6-6-6---------6-6-6-6-6-6-6-6------------|               |
A|-----4-4-4--------4-4-4---------6-6-6-6-6-6-6-6------------|               |
E|-----2-2-2----------------------4-4-4-4-4-4-4-4------------|               |
                                                                             |
       I don't care if you don't care                                        |
                                                                             |
                                                                             -


    F#5 G#5          C#5         A5  G#5
e|-----------------------------------------|
B|-----------------------------------------|
G|-------------6-6-6-6-6-6-6-6-------------|
D|---4---6-----6-6-6-6-6-6-6-6----7---6----|
A|---4---6-----4-4-4-4-4-4-4-4----7---6----|
E|---2---4------------------------5---4----|

     I don't care!

                                      -
         C#5         A5 G#5           |
e|---------------------------------|  |
B|---------------------------------|  |
G|--6-6-6-6-6-6-6------------------|  | x3 (Repeat)
D|--6-6-6-6-6-6-6----7---6---------|  |
A|--4-4-4-4-4-4-4----7---6---------|  |
E|-------------------5---4---------|  |
                                      -


(**The Bass is playing a C# throughout this verse)
                                                                             -
                                A5 G#5                            A5 G#5     |
e|------------------------------------------------------------------------|  |
B|------------------------------------------------------------------------|  |
G|------------------------------------------------------------------------|  |
D|------------------------------7---6-----------------------------7---6---|  |
A|------------------------------7---6-----------------------------7---6---|  |
E|------------------------------5---4-----------------------------5---4---|  |  x4 (Repeat)
                                                                             |
        Everyone's so full of shit,    born and raised by hypocrites         |
   Hearts recycled but never saved,     from the cradle to the grave         |
  We are the kids of war and peace,  from Anaheim to the Middle East         |
  We are the stories and disciples of          the Jesus of Suburbia         |
                                                                             -


          F#5         G#5  C#5 G#5       F#5        G#5   C#5 G#5
e|------------------------------------------------------------------------|
B|------------------------------------------------------------------------|
G|--------------------------6------------------------------6--------------|
D|---4-4-4-4-4-4-4---6-6-6--6---6---4-4-4-4-4-4-4--6-6-6---6---6----------|
A|---4-4-4-4-4-4-4---6-6-6--4---6---4-4-4-4-4-4-4--6-6-6---4---6----------|
E|---2-2-2-2-2-2-2---4-4-4------4---2-2-2-2-2-2-2--4-4-4-------4----------|

    Land of make believe,         and it don't believe in me


          F#5         G#5  C#5 G#5         F#5        G#%
e|-------------------------------------------------------------|
B|-------------------------------------------------------------|
G|--------------------------6----------------------------------|
D|---4-4-4-4-4-4-4---6-6-6--6---6-----4-4-4-4-4-4-4--6-6-6-----|
A|---4-4-4-4-4-4-4---6-6-6--4---6-----4-4-4-4-4-4-4--6-6-6-----|
E|---2-2-2-2-2-2-2---4-4-4------4-----2-2-2-2-2-2-2--4-4-4-----|

    Land of make believe,           and I don't believe,


                                               -
        F#5 G#5           C#5                  |
e|------------------------------------------|  |
B|------------------------------------------|  |
G|----------------6-6-6-6-6-6-6-6-6-6-------|  |
D|-------4---6----6-6-6-6-6-6-6-6-6-6-------|  |  x4 (Repeat)
A|-------4---6----4-4-4-4-4-4-4-4-4-4-------|  |
E|-------2---4------------------------------|  |
                                               |
     And I don't care (Whoo, whoo, whoo)       |
                                               -


     F#5 G#5       C#5      G#5
e|------------------------------------------|
B|------------------------------------------|
G|-------------6--6--6--6-------------------|
D|----4---6----6--6--6--6---666--6----------|
A|----4---6----4--4--4--4---666--6----------|
E|----2---4-----------------444--4----------|

      I don't care





IV. Dearly Beloved (5:25)


(**The guitar strums the chords only once in the first part. Afterwards, the guitar goes 
into strumming with a light palm mute)


                       G5 G#5                   B5 C5
e|-----------------------------------------------------------------------|
B|-----------------------------------------------------------------------|
G|-----------------------------------------------4/5---------------------|
D|----------------------5/6----------------------4/5---------------------|
A|----------------------5/6----------------------2/3---------------------|
E|----x-x-x-x-x-x-x-x---3/4---x-x-x-x-x-x-x-x----------x-x-x-x-x-x-x-x---|

                       Dearly beloved, are you listening?


     C5 C#5                    G5 G#5        D5 D#5
e|-----------------------------------------------------------------------|
B|-----------------------------------------------------------------------|
G|----5/6-------------------------------------7/8------------------------|
D|----5/6-----------------------5/6-----------7/8------------------------|
A|----3/4-----------------------5/6-----------5/6------------------------|
E|-----------x-x-x-x-x-x-x-x----3/4---x-x-x---------x-x-x-x--------------|

        I can't remember a word that you were saying


                                                            -
                G#                      Cm                  |
e|-------------------------------------------------------|  |
B|-----------------------------4---4---4---4-4-x---------|  |
G|------5---5---5----5-5-x-----5---5---5---5-5-x---------|  |
D|------6---6---6----6-6-x-----5---5---5---5-5-x---------|  |
A|------6---6---6----6-6-x---3---3---3---3---------------|  |
E|----4---4---4----4-------------------------------------|  |
                                                            |
     Are we demented or am I disturbed?                     |
     (Ooh-------)                                           |
     Oh therapy, can you please fill the void?              |
     Nobody's perfect and I stand accused,                  |
     (Ooh-------)                                           |
                                                            |
                                                            |  x5 (Repeat)
              C#                G#           D#             |
e|-------------------------------------------------------|  |
B|-----6---6---6---6-6-x------------------8----8-8-x-----|  |
G|-----6---6---6---6-6-x------5---5-------8----8-8-x-----|  |
D|-----6---6---6---6-6-x------6---6-------8----8-8-x-----|  |
A|---4---4---4---4------------6---6-----6----6-----------|  |
E|--------------------------4---4------------------------|  |
                                                            |
    The space that's in-between insane and insecure.        |
    (Ooh-------)                                            |
    Am I retarded or am I just overjoyed?                   |
    For lack of a better word, and that's my best excuse    |
    (Ooh-------)                                            |
                                                            -





V. Tales of Another Broken Home (6:30)



        G#5
e|---------------|
B|---------------|
G|---------------|
D|-------6-------|
A|-------6-------|
E|-------4-------|



(**The G# is played by the bass)

                                        -
           G#      F#5 C#5 G#5          |
e|-----------------------------------|  |
B|-----------------------------------|  |
G|----------------------6------------|  |  x4 (Repeat)
D|------------------4---6---6--------|  |
A|------------------4---4---6--------|  |
E|------------------2-------4--------|  |
                                        |
                                        -


                                                                 -
           G#5         F#5 C#5        G#5         F#5 C#5        |
e|------------------------------------------------------------|  |
B|------------------------------------------------------------|  |
G|--------------------------6--------------------------6------|  |
D|---6-6-6-6-6-6-6-6----4---6---6-6-6-6-6-6-6-6----4---6------|  |
A|---6-6-6-6-6-6-6-6----4---4---6-6-6-6-6-6-6-6----4---4------|  |
E|---4-4-4-4-4-4-4-4----2-------4-4-4-4-4-4-4-4----2----------|  |  x4 (Repeat)
                                                                 |
                                                                 |
            To live     and not to breathe,                      |
            Is to die   in tragedy                               |
            To run,     to run away                              |
            To find     what you believe                         |
                                                                 -



       C#5 G#5        D#5 D#       C#5 G#5        D#5 D#
e|-----------------------------------------------------------|
B|-------------------8---8---8-------------------8---8---8---|
G|---6---6---6-----8-8-8-8-8-8---6---6---6-----8-8-8-8-8-8---|
D|---6-6-6-6-6-6---8-8-8-8-8-8---6-6-6-6-6-6---8-8-8-8-8-8---|
A|---4-6-4-6-4-6---6---6---6-----4-6-4-6-4-6---6---6---6-----|
E|-----4---4---4-------------------4---4---4-----------------|

       And I leave behind this hurricane of fucking lies



                                                                 -
           G#5         F#5 C#5        G#5         F#5 C#5        |
e|------------------------------------------------------------|  |
B|------------------------------------------------------------|  |
G|--------------------------6--------------------------6------|  |
D|---6-6-6-6-6-6-6-6----4---6---6-6-6-6-6-6-6-6----4---6------|  |
A|---6-6-6-6-6-6-6-6----4---4---6-6-6-6-6-6-6-6----4---4------|  |
E|---4-4-4-4-4-4-4-4----2-------4-4-4-4-4-4-4-4----2----------|  |  x4 (Repeat)
                                                                 |
                                                                 |
            I lost      my faith to this,                        |
            This town   that don't exist                         |
            So I run,   I run away                               |
            To the lights of masochists                          |
                                                                 -




       C#5 G#5        D#5 D#       C#5 G#5        D#5 D#
e|-----------------------------------------------------------|
B|-------------------8---8---8-------------------8---8---8---|
G|---6---6---6-----8-8-8-8-8-8---6---6---6-----8-8-8-8-8-8---|
D|---6-6-6-6-6-6---8-8-8-8-8-8---6-6-6-6-6-6---8-8-8-8-8-8---|
A|---4-6-4-6-4-6---6---6---6-----4-6-4-6-4-6---6---6---6-----|
E|-----4---4---4-------------------4---4---4-----------------|

       And I leave behind this hurricane of fucking lies


       C#5 G#5        D#5 D#       C#5 G#5        D#5 D#
e|-----------------------------------------------------------|
B|-------------------8---8---8-------------------8---8---8---|
G|---6---6---6-----8-8-8-8-8-8---6---6---6-----8-8-8-8-8-8---|
D|---6-6-6-6-6-6---8-8-8-8-8-8---6-6-6-6-6-6---8-8-8-8-8-8---|
A|---4-6-4-6-4-6---6---6---6-----4-6-4-6-4-6---6---6---6-----|
E|-----4---4---4-------------------4---4---4-----------------|

   And I walked this line a million and one fucking times


        F#5 C#5  G#5
e|------------------------|
B|------------------------|
G|-----------6------------|
D|-------4---6----6-------|
A|-------4---4----6-------|
E|-------2--------4-------|

    But not this time

                                     -
          G#5         F#5 C#5        |
e|--------------------------------|  |
B|--------------------------------|  |
G|-------------------------6------|  |  x2 (Repeat)
D|--6-6-6-6-6-6-6-6----4---6------|  |
A|--6-6-6-6-6-6-6-6----4---4------|  |
E|--4-4-4-4-4-4-4-4----2----------|  |
                                     |
                                     -


  G#5 F#5 C#5 G#5 F#5 C#5 G#5 F#5 C#5 G#5 F#5 C#5   -
e|-----------------------------------------------|  |
B|-----------------------------------------------|  |
G|--6--8----6--10--6--8-----6--5----3--6--3--5---|  |  x2 (Repeat)
D|-----------------------------------------------|  |
A|-----------------------------------------------|  |
E|-----------------------------------------------|  |
                                                    -


(**This part of the solo is easiest to play when you barre the 6th or 8th fret, 
depending on which part you are on)


     C#5     G#5     C#5     G#5     C#5   G#5
e|---------------------------------------------|
B|---7p6-----9p6-----7p6-----9p6-----7p6-------|
G|-------6-------6-------6-------6-------6/8---|
D|---------------------------------------------|
A|---------------------------------------------|
E|---------------------------------------------|


     D#5     D#       D#5     D#       D#5   D#
e|-----------------------------------------------|
B|---9p8-----11p8-----9p8-----11p8-----9p8-------|
G|-------8--------8-------8--------8-------8\6---|
D|-----------------------------------------------|
A|-----------------------------------------------|
E|-----------------------------------------------|



(**This part is played by a piano, but I've tabbed is out for the guitar)


     Fm              D#           G#         C#
e|---8---------------6------------4----------4---------|
B|---9---------------8------------4----------6---------|
G|---10--------------8------------5----------6---------|
D|---10--------------8------------6----------6---------|
A|---8---------------6------------6----------4---------|
E|---x---------------x------------4----------x---------|

       I don't feel any shame, I won't apologize


    C#                    D#             G#      ()
e|--4---------------------6--------------4-------------|
B|--6---------------------8--------------4-------------|
G|--6---------------------8--------------5-------------|
D|--6---------------------8--------------6-------------|
A|--4---------------------6--------------6-------------|
E|--x---------------------x--------------4-------------|

       When there ain't nowhere you can go


     C#          D#                  G#                C#
e|---4-----------6-------------------4-----------------4---|
B|---6-----------8-------------------4-----------------6---|
G|---6-----------8-------------------5-----------------6---|
D|---6-----------8-------------------6-----------------6---|
A|---4-----------6-------------------6-----------------4---|
E|---x-----------x-------------------4-----------------x---|

       Running away from pain when you've been victimized


    C#             D#
e|--4--------------6-------------------|
B|--6--------------8-------------------|
G|--6--------------8-------------------|
D|--6--------------8-------------------|
A|--4--------------6-------------------|
E|--x--------------x-------------------|

      Tales from another broken...



                                   -
           G#5         F#5 C#5     |
e|------------------------------|  |
B|------------------------------|  |
G|--------------------------6---|  |
D|---6-6-6-6-6-6-6-6----4---6---|  |  x3 (Repeat)
A|---6-6-6-6-6-6-6-6----4---4---|  |
E|---4-4-4-4-4-4-4-4----2-------|  |
                                   |
    (Home-----)                    |
                (You're leaving)   |
                                   -



           G#5         F#5 C#5
e|-----------------------------------|
B|-----------------------------------|
G|--------------------------6--------|
D|---6-6-6-6-6-6-6-6----4---6--------|
A|---6-6-6-6-6-6-6-6----4---4--------|
E|---4-4-4-4-4-4-4-4----2------------|

              Are you leaving home?


           G#5         F#5 C#5
e|-----------------------------------|
B|-----------------------------------|
G|--------------------------6--------|
D|---6-6-6-6-6-6-6-6----4---6--------|
A|---6-6-6-6-6-6-6-6----4---4--------|
E|---4-4-4-4-4-4-4-4----2------------|


           G#5         F#5 C#5
e|-----------------------------------|
B|-----------------------------------|
G|--------------------------6--------|
D|---6-6-6-6-6-6-6-6----4---6---6\---|
A|---6-6-6-6-6-6-6-6----4---4---6\---|
E|---4-4-4-4-4-4-4-4----2-------4\---|


************************************

| x  Mute note
| p  Pull-off
| /  Slide up
| \  Slide down

************************************
Suggest correction
comments
print report bad tab
2 comments total.
0 reply
ehbacon 528 Aug 29, 2013 10:42 AM

awesome solo! FIVE STARS!!!

+1 reply
daniel.lynch.14 10 Dec 06, 2013 12:12 PM

great tab just switch the 3 in 'city of the damned' at the start for 4
5 6
5 5
and its perfect

guest
You may want to rate the tab now too:
select rating
Wanna post a correction for this tab? Suggest correction