Oops, an error
Loading. Please wait.

Jinx Tab

version 2
version 2

Whole song

Interactive

7,362 views 18 this week
3 commentsread comments
1 2 3 4 5
excellent!
x 9
add to favorites
launch autoscroll
font size
0
reset
how to read this tab
guitar tuner
Tab Pro tools
  • play this tab
  • loop segment
  • change instrument
  • show fretboard
  • metronome
Autoscroll
slow
fast
+/-
esc
set tempo
stop
Contributor
                             Jink - Green Day

Tabbed by: Sam Champness
Email: schampness@msn.com
Song: Jink
Tuning: Eadgbe

Intro
e|--------------------|
B|--------------------|
G|-----555---7777777--|
D|55---555-x-7777777--|
A|55-x-333-x-5555555--|
E|33-x----------------|X2

Verse
e|--------------------------------------------------------------|
B|--------------------------------------------------------------|
G|----7777----5---------5555555---------5555555----777-99999----|
D|555-7777-55-5-5555555-5555555-5555555-5555555-55-777-99999----|
A|555-5555-55-3-5555555-3333333-5555555-3333333-55-555-77777----|
E|333------33---3333333---------3333333---------33--------------|

e|---------------------------------|
B|---------------------------------|
G|-5555555---------7777777777------|
D|-5555555-3333333-7777777777------|
A|-3333333-3333333-5555555555------|
E|---------1111111-----------------|X2

Chorus
e|----------------------|
B|----------------------|
G|-----555-7777777------|
D|5-5--555-7777777------|
A|5-5--333-5555555------|
E|3-3----------------X4-|

Ending
e|----------||----------------------------------||-----------||------------|
B|----------||----------------------------------||-----------||------------|
G|-77777777-||-------------5555-5555--7777-7777-||-----------||-77777777---|
D|-77777777-||--5555-5555--5555-5555--7777-7777-||-----------||-77777777---|
A|-55555555-||--5555-5555--3333-3333--5555-5555-||-----------||-55555555---|
E|----------||--3333-3333-----------------------||-FINISH-ON-||------------|

ENJOY!!!! PLEASE RATE!!

ORDER
INTRO
VERSE
CHORUS
VERSE
CHORUS
ENDING
FINISH

| /  slide up
| \  slide down
| h  hammer-on
| p  pull-off
| ~  vibrato
| +  harmonic
| x  Mute note
=============================================================================
comments
print report bad tab
3 comments total.
0 reply
xWHATSERNAMEx wrote on June 22 2007, 05:28 pm

Good job man!

0 reply
xWHATSERNAMEx wrote on June 22 2007, 05:30 pm

.:I:.
\m/ ( '_' ) \m/

0 reply
xWHATSERNAMEx wrote on June 22 2007, 05:31 pm

oops

\m/ ( '_' ) \m/

I want to post or [tab]
guest
You may want to rate the tab now too:
select rating
Please do not post tabs as comments. Select "correction" instead!