Oops, an error
Loading. Please wait.

Kill The Dj Bass Tab

version 1
version 1

Whole song

Interactive

18,785 views 27 this week
3 commentsread comments
1 2 3 4 5
accurate
x 10
add to favorites
launch autoscroll
font size
0
reset
guitar tuner
Autoscroll
slow
fast
+/-
esc
set tempo
stop
Help us to improve Ultimate-Guitar.com Take our survey!
×
Intro

G|---------------------|
D|---------------------| 
A|--0-0-0-0-0-0-0-00---|
E|-------------------3-|   


Verse

G|-------------------------|
D|-------------------------|
A|--00-000-0-55-5-----5-3--| X6
E|----------------3-3------|


Pre-chorus

G|----------------------------------------------|
D|----------------------------------------------|
A|--77-77-9-7-6-55--5-3-5-6-77-77-9-7-6-55--12--|
E|----------------------------------------------|


Chorus

G|--------------------------------------------------------------------------|
D|------------------------------------------------------------7-5-0--5-7-5--|
A|--0-0-0---0-3-5-3-5-5-5-5-----5-3--0-0-0---0-3-5-3-5-5-5-5----------------| 
E|--------3-----------------3-3------------3--------------------------------|


G|-------------------------------------------------------|
D|-------------------------------------------------------|
A|--0-0-0---0-3-5-3-5-5-5-5-----5-3---0-0-0-0-0-0-0-00---| 
E|--------3-----------------3-3------------------------3-|


Post-chorus

G|-----2-5-------------------------|
D|--33--------2-5------------------|
A|---------33--------2-5--3-2-0----|
E|----------------33------------3--|


G|-----2-5--------------------------|
D|--33--------2-5-------------------|
A|---------33------7-7-7-7-7--00----|
E|-------------------------------3--|


Verse

G|-------------------------|
D|-------------------------|
A|--00-000-0-55-5-----5-3--| 
E|----------------3-3------|

G|------------------------------|
D|----------------7-5-0--5-7-5--|
A|--00-000-0-55-5---------------|
E|------------------------------|

G|-------------------------|
D|-------------------------|
A|--00-000-0-55-5-----5-3--| X4 
E|----------------3-3------|


Pre-chorus

G|----------------------------------------------|
D|----------------------------------------------|
A|--77-77-9-7-6-55--5-3-5-6-77-77-9-7-6-55--12--|
E|----------------------------------------------|


Chorus

G|--------------------------------------------------------------------------|
D|------------------------------------------------------------7-5-0--5-7-5--|
A|--0-0-0---0-3-5-3-5-5-5-5-----5-3--0-0-0---0-3-5-3-5-5-5-5----------------| 
E|--------3-----------------3-3------------3--------------------------------|


G|-------------------------------------------------------|
D|-------------------------------------------------------|
A|--0-0-0---0-3-5-3-5-5-5-5-----5-3---0-0-0-0-0-0-0-00---| 
E|--------3-----------------3-3------------------------3-|


Post-chorus

G|-----2-5-------------------------|
D|--33--------2-5------------------|
A|---------33--------2-5--3-2-0----|
E|----------------33------------3--|


G|-----2-5--------------------------|
D|--33--------2-5-------------------|
A|---------33------7-7-7-7-7--00----|
E|-------------------------------3--|


Bridge

G|-----|
D|-----|
A|--0--|
E|-----|

G|-----|
D|-----|
A|--0--|
E|-----|

G|--------|
D|--------|
A|--00----|
E|-----3--|


Solo

G|--------------------------------------------------------------------------|
D|------------------------------------------------------------7-5-0--5-7-5--|
A|--0-0-0---0-3-5-3-5-5-5-5-----5-3--0-0-0---0-3-5-3-5-5-5-5----------------| 
E|--------3-----------------3-3------------3--------------------------------|

G|--------------------------------------------------------------------------|
D|------------------------------------------------------------7-5-0--5-7-5--|
A|--0-0-0---0-3-5-3-5-5-5-5-----5-3--0-0-0---0-3-5-3-5-5-5-5----------------| 
E|--------3-----------------3-3------------3--------------------------------|


After solo

G|-----2-5-------------------------|
D|--33--------2-5------------------|
A|---------33--------2-5--3-2-0----|
E|----------------33------------3--|


G|-----2-5--------------------------|
D|--33--------2-5-------------------|
A|---------33------7-7-7-7-7--00----|
E|-------------------------------3--|


Bridge 2

G|-----|
D|-----|
A|--0--| X24
E|-----|

Start to the second "walkin' after dark"
G|---------------------------|
D|--7777---------------------|
A|-------10101010-8888-7777--| X3
E|---------------------------|

G|-------------|
D|-------------|
A|--0----00----|
E|----------3--|


Chorus

G|--------------------------------------------------------------------------|
D|------------------------------------------------------------7-5-0--5-7-5--|
A|--0-0-0---0-3-5-3-5-5-5-5-----5-3--0-0-0---0-3-5-3-5-5-5-5----------------| 
E|--------3-----------------3-3------------3--------------------------------|


G|-------------------------------------------------------|
D|-------------------------------------------------------|
A|--0-0-0---0-3-5-3-5-5-5-5-----5-3---0-0-0-0-0-0-0-00---| 
E|--------3-----------------3-3------------------------3-|


End

G|-----|
D|-----|
A|--0--|
E|-----|

Suggest correction
comments
print report bad tab
3 comments total.
-1 reply
robotfrom94 304 wrote on September 16 2012, 10:31 am

Awesome tab, well done

+1 reply
FallenDestiny 103 wrote on September 24 2012, 12:00 pm

Way off...

0 reply
BassFreak98 72 wrote on March 11 2013, 04:45 pm

Great thanks

guest
You may want to rate the tab now too:
select rating
Please do not post tabs as comments. Select "correction" instead!