Oops, an error
Loading. Please wait.

Kill The Dj Tab

version 1
version 1

Whole song

Interactive

Video

52,271 views 15 this week
1 commentread comment
1 2 3 4 5
x 8
add to favorites
launch autoscroll
font size
0
reset
how to read this tab
guitar tuner
Autoscroll
slow
fast
+/-
esc
set tempo
stop
Help us to improve Ultimate-Guitar.com Take our survey!
×
Author
Difficulty
intermediate
-------------------------------------------------------------------------------
                             Kill The DJ - Green Day
-------------------------------------------------------------------------------
Tabbed by: Jordanlolss

Tuning: Standard            

Listen to the song and try to get the timing right..
This is my first tab, so i'm sorry for mistakes..
Very helpful to have a tremolo/whammy bar, use it a lot!
Also, make lots of scratchy chuggy kind of noises in between chords and what not..

Thanks to powertotehchord on youtube for helping explain the cool riff thing.. 
http://youtu.be/YKFZNv7GbaE

Rest was tabbed by me, listening to Kill The DJ played live at the Echoplex..




e|----------------|----------------|----------------|----------------|
b|----------------|----------------|----------------|----------------|
g|----------------|----------------|----------------|----------------|
D|----------------|----------------|----------------|----------------|
A|----------------|---55-5---------|-----------55-5-|----------------|
E|-5-3--55--555---|5-------3333----|55--555--5-----3|333--55--555--5-|

e|----------------|----------------|----------------|----------------|
b|----------------|----------------|----------------|----------------|
g|----------------|----------------|----------------|----------------|
D|----------------|----------------|----------------|----------------|
A|55-5------------|------55-5------|------------55-5|----------------|
E|-----3333--55--5|55--5-----3333--|-55--555--5-----|3333---55--555--|
  

e|----------------|----------------|----------------|----------------|
b|----------------|----------------|----------------|----------------|
g|----------------|----------------|----------------|-----7-7-7-7----|
D|----------------|----------------|-------------7-7|-7-7-7-7-7-7-7-7|
A|--55-5----------|----55-55--5353-|------55555--7-7|-7-7-5-5-5-5-7-7|
E|5-----3333---00-|00--------------|00-00--------5-5|-5-5---------5-5|
  

e|----------------|----------------|----------------|----------------|
b|----------------|----------------|----------------|-10~------------|
g|-----7-7-7-7----|-----7-7-7-7----|----------------|-10~-9~--4~-5~--|
D|-7-7-5-5-5-5-7-7|-7-7-7-7-7-7----|----------------|-10~-10~-5~-7~--|
A|-7-7-5-5-5-5-7-7|-7-7-5-5-5-5----|----------------|-8~--10~-5~-7~--|
E|-5-5---------5-5|-5-5----------5-|5-5-5-5-5-5-553-|-----8~--3~-5~--|
  

e|--------------5~|-55-5-----------|-----17-17-17-17|----------------|
b|10~-----------5~|-55-5-----------|-----17-17-17-17|--------------8-|
g|10~-9~--------5~|-55-5-5h7--7-7-5|7-5--17-17-17-17|-55-5-5h7--7b---|
D|10~-10~---------|----------------|----------------|----------------|
A|8~--10~---------|----------------|----------------|----------------|
E|----8~--00000---|----------------|----------------|----------------|
  

e|----------------|----------------|----------------|----------------|
b|----------------|----------------|----------------|----------------|
g|7r-5------------|----------------|----------------|----------------|
D|----------------|----------------|----------------|----------------|
A|----------------|---55-5---------|-----------55-5-|----------------|
E|------55--555---|5-------3333----|55--555--5-----3|333--55--555--5-|

You can start to repeat the parts basically.. when it comes to the little break down thing..

(this is all palm muted)

e|----------------|----------------|----------------|----------------|
b|----------------|----------------|----------------|----------------|
g|----------------|----------------|----------------|----------------|
D|----------------|----------------|----------------|----------------|
A|----------------|----------------|----------------|----------------|
E|--5555-7777-8888|-12121212-5555-7|777-8888--121212|12-5555-7777-888|


e|----------------|----------------|----------------|----------------|
b|----------------|----------------|----------------|----------------|
g|----------------|----------------|----------------|----------------|
D|----------------|----------------|----------------|----------------|
A|----------------|----------------|----------------|----------------|
E|8-12121212-5----|----------------|----------------|----------------|


e|---5~---55-5----|-----------------|
b|---5~---55-5----|-----------------|
g|---5~---55-5-5h7|--7-7-5-7-5------|
D|----------------|-----------------|
A|----------------|-----------------|  
E|----------------|-----------------|
  

              
e|17-17-17-17-----|55-5------------|-----55-55-55----|----------------|
b|17-17-17-17-----|55-5----------8-|-----55-55-55----|----------------|
g|17-17-17-17-----|55-5-5h7---7b---|7r-5-55-55-55-5h7|--7-7-5-7-5-----|
D|----------------|----------------|-----------------|----------------|
A|----------------|----------------|-----------------|----------------|
E|----------------|----------------|-----------------|----------------|
  
 

                                               F     C    G    Am
e|17-17-17-17-----|55-5------------|----------------|-----------------|
b|17-17-17-17-----|55-5------------|----------10~---|-----------------|
g|17-17-17-17-----|55-5-5h7--7-7-7-|5-7-5-----10~---|9~---4~---5~-----|
D|----------------|----------------|----------10~---|10~--5~---7~-----|
A|----------------|----------------|----------8~----|10~--5~---7~-----|
E|----------------|----------------|----------------|8~---3~---5~-----|
  
 

  F     C                
e|----------------|----------------|----------------|-----------------|
b|----------------|----------------|----------------|-----------------|
g|10~---9~--------|----------------|----------------|-----------------|
D|10~---10~-------|----------------|----------------|-----------------|
A|8~----10~-------|----------------|----------------|-----------------|
E|------8~---0-0-0|-0-0---5-5-5-5-5|-5-5------------|-----------------|
(Keep repeating this part, I think this is only when played live)



Leads back into
e|----------------|----------------|----------------|----------------|
b|----------------|----------------|----------------|----------------|
g|----------------|----------------|----------------|----------------|
D|----------------|----------------|----------------|----------------|
A|----------------|----------------|----------------|----------------|
E|--5555-7777-8888|-12121212-5555-7|777-8888--121212|12-5555-7777-888|


e|----------------|----------------|----------------|----------------|
b|----------------|----------------|----------------|----------------|
g|----------------|----------------|----------------|----------------|
D|----------------|----------------|----------------|----------------|
A|----------------|----------------|----------------|----------------|
E|8-12121212------|(keep repeating as needed)----5--|----------------|



And then goes back to this..


e|---5~---55-5----|-----------------|
b|---5~---55-5----|-----------------|
g|---5~---55-5-5h7|--7-7-5-7-5------|
D|----------------|-----------------|
A|----------------|-----------------|
E|----------------|-----------------|
  

              
e|17-17-17-17-----|55-5------------|-----55-55-55----|----------------|
b|17-17-17-17-----|55-5----------8-|-----55-55-55----|----------------|
g|17-17-17-17-----|55-5-5h7---7b---|7r-5-55-55-55-5h7|--7-7-5-7-5-----|
D|----------------|----------------|-----------------|----------------|
A|----------------|----------------|-----------------|----------------|
E|----------------|----------------|-----------------|----------------|



e|----------------|----------------|-----------------|----------------|
b|----------------|----------------|-----------------|----------------|
g|----------------|----------------|-----------------|----------------|
D|----------------|----------------|-----------------|----------------|
A|----------------|----------------|-----------------|----------------|
E|-5-5-5-5-5-5-5--|553--5----------|-----------------|----------------|

(At the same time as that another guitar is playing this)
e|----------------|----------------|----------------|----------------|
b|----------------|----------------|----------------|----------------|
g|---------7-7-7-7|---------7-7-7-7|----------------|----------------|
D|-7-7-7-7-5-5-5-5|-7-7-7-7-5-5-5-5|---(Just keep repeating)---------|
A|-7-7-7-7-5-5-5-5|-7-7-7-7-5-5-5-5|----------------|----------------|
E|-5-5-5-5--------|-5-5-5-5--------|----------------|----------------|



************************************

| /   slide up
| \   slide down
| h   hammer-on
| p   pull-off
| ~   vibrato
| +   harmonic
| x   Mute note
| b   Bend
| pb  Pre-bend
| br  Bend release
| pbr Pre-bend release
| brb Bend release bend

************************************
Suggest correction
comments
print report bad tab
1 comment total.
0 reply
Sixxstarr 201 Apr 08, 2014 04:46 PM

the first like 11 bars are actually the bass line just in case you didn't realize that

guest
You may want to rate the tab now too:
select rating
Wanna post a correction for this tab? Suggest correction