Oops, an error
Loading. Please wait.

Kill The Dj Bass Tab

version 2
version 2

Whole song

Interactive

862 views 1 this week
1 commentread comment
1 2 3 4 5
1 last vote to show rating
add to favorites
launch autoscroll
font size
0
reset
guitar tuner
Autoscroll
slow
fast
+/-
esc
set tempo
stop
Help us to improve Ultimate-Guitar.com Take our survey!
×
Author
Difficulty
x=palm mute

Intro

g|---------------------------------------------------------------------------|
d|---------------------------------------------------------------------------|
a|---------------------------------------------------------------------------|
e|--5-5-5-5-5-5-5-55-3-5-5-5-5-5-5-5-55-3------------------------------------|

Verse


g|---------------------------------------------------------------------------|
d|---------------------------------------------------------------------------|
a|-----------55-5------------------55-5--------------------------------------|
e|--55-555-5-------3-3----55-555-5-------3-3---------------------------------|
                    Repeat Throughout Verse

Pre-Chorus

g|---------------------------------------------------------------------------|
d|---------------------------------------------------------------------------|
a|-------77-777-7-55-5-555-3--77-777-7-55-5-555-3----------------------------|
e|---------------------------------------------------------------------------|



Chorus
g|---------------------------------------------------------------------------|
d|---------------------------------------------------------------------------|
a|---------------------33x3--------------------------------------------------|
e|----------55-x5x5x5x-------3333--------------------------------------------|
    repeat throughout chorus
an then:
g|---------------------------------------------------------------------------|
d|---------------------------------------------------------------------------|
a|---------------------------------------------------------------------------|
e|--5-5-5-5-5-5-5-55-3-------------------------------------------------------|

Post Chorus

g|-----2-5-------------------------|-----2-5--------------------------|
d|--33--------2-5------------------|--33--------2-5-------------------|
a|---------33--------2-5--3-2-0----|---------33------7-7-7-7-7--00----|
e|----------------33------------3--|-------------------------------3--|

g|---------------------------------------------------------------------------|
d|---------------------------------------------------------------------------|
a|---------------------------------------------------------------------------|
e|--5-5-5-5-5-5-5-55-3-5-5-5-5-5-5-5-55-3------------------------------------|

Verse


g|---------------------------------------------------------------------------|
d|---------------------------------------------------------------------------|
a|-----------55-5------------------55-5--------------------------------------|
e|--55-555-5-------3-3----55-555-5-------3-3---------------------------------|
                    Repeat Throughout Verse

end it with a sustained A note

and thats pretty much it. questions? comments? email: kalentherocker666@gmail.com
Music Video: http://www.youtube.com/watch?v=jW7VhkNqjnc
Suggest correction
Give kudos to tab author, rate the tab!
1 2 3 4 5
comments
print report bad tab
1 comment total.
0 reply
FallenDestiny 103 Sep 28, 2012 12:03 PM

No good, man. Sorry.

guest
You may want to rate the tab now too:
select rating
Wanna post a correction for this tab? Suggest correction