Oops, an error
Loading. Please wait.

Kill The Dj Tab

version 2
version 2

Whole song

Interactive

Video

48,657 views 84 this week
7 commentsread comments
1 2 3 4 5
x 19
add to favorites
launch autoscroll
font size
0
reset
how to read this tab
guitar tuner
backing track
0:00
0:00
×
Best way to learn
"Kill The Dj"
Autoscroll
slow
fast
+/-
esc
set tempo
stop
Artist: Green Day
Song: Kill the DJ

[Intro]
e|--------------------------------|
b|--------------------------------|
g|--------------------------------|
D|--------------------------------|
A|--------------------------------|
E|5-5-5-5-5-5-5-553---------------|

[Verse]
(Walkin' after dark, in the New York..)
e|----------------------------------------------------------------|
b|----------------------------------------------------------------|
g|--------------------7-----------------------7-------------------|
D|-------7------------7------------7----------7---------7---------|
A|-------7-----------55-5----------7---------55-5-------7---------|
E|------55--555---5-------3333----55--555--5-----3333--55--555--5-|

e|----------------------------------------------------------------|
b|----------------------------------------------------------------|
g|-7---------------------7---------------------7------------------|
D|-7----------7----------7----------7----------7----------7-------|
A|55-5--------7---------55-5--------7---------55-5--------7-------|
E|-----3333--55--555--5-----3333---55--555--5-----3333---55--555--|

e|------------------------------------------------|
b|------------------------------------------------|
g|---7----------------777-77575----------77777----|
D|---7----------------777----------------77777----|
A|--55-5-------22-22--555---------22-22--55555----|
E|5-----3333---00-00--------------00-00-----------|

[Chorus]
(Someone kill the DJ, shoot the..)
e|---------------------------------------------------------|
b|-p-------------------------------------------------------|
g|-a----------7-7------------------------------------------|
D|-u-7-7-77-7-7-7-55-5-(3x)----then-----7-7-7-7-7-7-7-775--|
A|-s-7-7-77-7-5-5-55-5------------------7-7-7-7-7-7-7-775--|
E|-e-5-5-55-5-----33-3------------------5-5-5-5-5-5-5-553--|

[Post-Chorus]
(We are the vultures, the dirtiest kind..)
e|---------------------------------------------------|
b|10~--------------10~-------------------------------|
g|10~-9~--4~--5~---10~-9~----------------------------|
D|10~-10~-5~--7~---10~-10~-22222-257~----------------|
A|8~--10~-5~--7~---8~--10~-22222-257~----------------|
E|----8~--3~--5~-------8~--00000-035~----------------|

[Fill 1]
e|-5~-55-5----------------17171717-55-----------------------|
b|-5~-55-5----------------17171717-55-----------8-----------|
g|-5~-55-5-5h7--77-5-7-5--17171717-55-5-5h7--7b---7r-5------|
D|----------------------------------------------------------|
A|----------------------------------------------------------|
E|----------------------------------------------------------|

[Fill 2]
e|------------------------------------------------------------------------------|
b|------------------------------------------------------------------------------|
g|------------------------------------------------------------------------------|
D|--------------------------------------------------------------------------7-75|
A|--------------------------------------------------------------------------7-75|
E|--5555-7777-8888-12121212-5555-7777-8888-12121212-5555-7777-8888-12121212-5-53|
    .... .... .... . . . .  .... .... .... . . . .  .... .... .... . . . .

[Solo]
e|-5~-55-5----------------17171717-----55-5---------------------|
b|-5~-55-5----------------17171717-----55-5----------8----------|
g|-5~-55-5-5h7--77-5-7-5--17171717-----55-5-5h7---7b---7r5------|
D|--------------------------------------------------------------|
A|--------------------------------------------------------------|
E|--------------------------------------------------------------|

e|-555-55-5---------------17171717-55-5----------------------------------|
b|-555-55-5---------------17171717-55-5---------------10~----------------|
g|-555-55-5-5h7-77-5-7-5--17171717-55-5-5h7-77-5-7-5--10~---9~---4~---5~-|
D|----------------------------------------------------10~---10~--5~---7~-|
A|----------------------------------------------------8~----10~--5~---7~-|
E|----------------------------------------------------------8~---3~---5~-|
             
e|-----------------------------------------------------------------|
b|10~--------------------------------------------------------------|
g|10~---9~---------------------------------------------------------|
D|10~---10~--------------------------------------------------------|
A|8~----10~--222222-57-7-7-7-7-7-7-7-7--(still playing in bridge)--|
E|------8~---000000-35-5-5-5-5-5-5-5-5-----------------------------|

[Bridge after solo]
(Someone kill the DJ, shoot the..)
e|--------------------------------------------------------|
b|--------------------------------------------------------|
g|--------------------------------------------------------|
D|--------------------------------------------------------|
A|----------------------------(7x)-7---75-----------------|
E|--5555-7777-8888-12121212--------5---53-----------------|
    .... .... .... . . . .

SONG ORDER:
Intro
Verse
Chorus
Post-Chorus
Fill 1
Verse
Chorus
Post-Chorus
Fill 2
Solo
Bridge
Chorus

************************************

| p  Pull-off
| ~  Vibrato
| h  Hammer-on
| r  Release
| b  Bend
| .  Staccato

************************************
Suggest correction
There is a new version of this tab from today which you may like more. Go check it out:
comments
print report bad tab
7 comments total. Showing first comments.
0 reply
GuitarDomen 140 Aug 28, 2012 06:14 AM

Nice! The best one so far!

0 reply
GuitarPunk94 887 Oct 04, 2012 01:50 AM

nice tab bro :)
i also did some ¡UNO! tabs and now i want to share a full 'album'´(guitar) tablature for Green Day's ¡UNO! and since your tab of 'Kill The DJ' is nearly perfect im going to use your tab instead of mine for this song :)

0 reply
PunkFCK 10 Oct 16, 2012 07:28 AM

FUCK YEAH

guest
You may want to rate the tab now too:
select rating
Wanna post a correction for this tab? Suggest correction