Oops, an error
Loading. Please wait.

Kill The Dj Bass Tab

version 3
version 3

Whole song

Interactive

10,511 views 18 this week
1 commentread comment
1 2 3 4 5
excellent!
x 11
add to favorites
launch autoscroll
font size
0
reset
guitar tuner
Autoscroll
slow
fast
+/-
esc
set tempo
stop
Help us to improve Ultimate-Guitar.com Take our survey!
×
Difficulty
intermediate
-----------------------------------------------------------------------------
                             KILL THE DJ - Green Day
-----------------------------------------------------------------------------
Tabbed by: TheNorwishHedge
E-mail: eirik.hemstad@hotmail.com

Tuning: Standard

I listened to it, and this sounds just about right. I tried tabbing
it rythmic, but if you're stuck, listen to the song.

INTRO:
G|---------------------------------------------------------------------|
D|---------------------------------------------------------------------|
A|---------------------------------------------------------------------|
E|-5---5---5---5---5---5---5---5-5-3-----------------------------------|

G|---------------------------------------------------------------------|
D|---------------------------------------------------------------------|
A|---------------x-5-5---------------------------x-5-5-----------------|
E|-5-5---x-5-5-----------x-3-3-3-0-5-5---x-5-5-----------x-3-3-3-0-----|

VERSE:
G|---------------------------------------------------------------------|
D|---------------------------------------------------------------------|
A|---------------x-5-5---------------------------x-5-5-----------------|
E|-5-5---x-5-5-----------x-3-3-3-0-5-5---x-5-5-----------x-3-3-3-0-----|x2

G|---------------------------------------------------------------------|
D|-----------5-------------------------------5-------------------------|
A|-7-7---x-7---7-6-5-5---x-5-3-5-6-7-7---x-7---7-6-5-5-xxxx-5----------|
E|---------------------------------------------------------------------|

CHORUS:
G|---------------------------------------------------------------------|
D|---------------------------------------------------------75--5-------|
A|-----------3---3-5-5-5-5-------------------3---3-5-5-5-5---7--75-----|
E|-5-5-5-3-5---5-----------3-3-3-0-5-5-5-3-5---5-----------------------|

G|---------------------------------------------------------------------|
D|---------------------------------------------------------------------|
A|-----------3---3-5-5-5-5---------------------------------------------|
E|-5-5-5-3-5---5-----------3-3-3-0-5---5---5---5---5---5---5---5-5-3---|

POST-CHORUS:
G|-----2-5-------------------------------------------------------------|
D|-3-3---------2-5-----------------------------------------------------|
A|---------3-3---------2-5-----------0-3---3-2-5-3-7-7-777-------------|
E|-----------------3-3-----5-5-3-1-1-----1---------------------5-5-3---|

INTERLUDE:
G|---------------------------------------------------------------------|
D|---------------------------------------------------------75--5-------|
A|---------------x-5-5---------------------------x-5-5---x---7--75-----|
E|-5-5---x-5-5-----------x-3-3-3-0-5-5---x-5-5-------------------------|

BRIDGE:
G|---------------------------------------------------------------------|
D|---------------------------------------------------------------------|
A|---------------------------------------------------------------------|
E|-5~----------------------------------------------5-----------5-5-3---|

SOLO:
G|---------------------------------------------------------------------|
D|---------------------------------------------------------75--5-------|
A|-----------3---3-5-5-5-5-------------------3---3-5-5-5-5---7--75-----|
E|-5-5-5-3-5---5-----------3-3-3-0-5-5-5-3-5---5-----------------------|x2

BREAKDOWN:
G|---------------------------------------------------------------------|
D|-7---7---7---7---7---7---7---7---7---7---7---7---7---7---7---7-------|
A|---------------------------------------------------------------------|
E|---------------------------------------------------------------------|

G|---------------------------------------------------------------------|
D|-7---7---7---7---7---7---7---7---77775555------77775555--------------|
A|-----------------------------------------888877--------88887777------|
E|---------------------------------------------------------------------|

G|---------------------------------------------------------------------|
D|-77775555------------------------------------------------------------|
A|---------88887777----------------------------------------------------|
E|-----------------5-----------5-5-3-----------------------------------|

ENDING:
G|--------------------|
D|--------------------|
A|--------------------|
E|-5~-----------------|

ORDER:
Intro
Verse
Chorus
Post-Chorus
Interlude
Verse
Chorus
Post-Chorus
Bridge
Solo
Post-Chorus
Breakdown
Chorus
Ending

| /  slide up
| \  slide down
| h  hammer-on
| p  pull-off
| ~  vibrato
| +  harmonic
| x  Mute note
===============================================================================
Suggest correction
comments
print report bad tab
1 comment total.
0 reply
FallenDestiny 103 wrote on October 3 2012, 07:53 pm

Finally, an accurate tab!

guest
You may want to rate the tab now too:
select rating
Please do not post tabs as comments. Select "correction" instead!