Oops, an error
Loading. Please wait.

Kill The Dj Tab

version 3
version 3

Whole song

Interactive

Video

19,976 views 30 this week
1 commentread comment
1 2 3 4 5
x 20
add to favorites
launch autoscroll
font size
0
reset
how to read this tab
guitar tuner
Autoscroll
slow
fast
+/-
esc
set tempo
stop
Help us to improve Ultimate-Guitar.com Take our survey!
×
Author
As of right now, this is the band's newest single. It's kind of Clash-esque in style and 
subject matter.
I might make some improvements later on, but right now I think this is the most accurate 
tab of this song. There are two guitar parts, but they play the same things, just at 
different times. Here is a combination of the two.

Intro:
|------------------------------|
|------------------------------|
|------------------------------|
|------------------------------|
|------------------------------|
|--5--5--5--5--5--5--5--5-5-3--|

|----5-------------10--x-x-----------|
|----5-------------10--x-x-----------|
|----5-------------10--x-x-----------|
|--7-----7-7----12-----x-x-----------| x2
|--7-----7-7----12-----x-x-----------|
|--5-----5-5----10-----x-x--3-3-3-4--|

Verse:
|----5-------------10--x-x-----------|
|----5-------------10--x-x-----------|
|----5-------------10--x-x-----------|
|--7-----7-7----12-----x-x-----------| x4
|--7-----7-7----12-----x-x-----------|
|--5-----5-5----10-----x-x--3-3-3-4--|

|----7----7----5----------|
|----8----8----6----------|
|--9-9--9-9--7-7--775-7-5-|
|--9----9----7------------| repeat until the D chord.
|--7----7----5------------|
|-------------------------|

Chorus:
|--x-5--x-5--x-5--x-5--x-7--x-7--x----x----|
|--x-5--x-5--x-5--x-5--x-7--x-7--x-3--x-3--|
|--x-5--x-5--x-5--x-5--x-7--x-7--x-4--x-4--|
|--------------------------------x-5--x-5--| x3
|------------------------------------------|
|------------------------------------------|

|------------------------------|
|------------------------------|
|------------------------------|
|------------------------------|
|------------------------------|
|--5--5--5--5--5--5--5--5-5-3--|

|----------------3-3--5-5------------------------------------------|
|--10-10---------3-3--5-5--10-10-----------------------------------|
|--10-10---9--9--4-4--5-5--10-10--9--9-----------------------------|
|--10-10--10-10--5-5--7-7--10-10--10-10----------------------------|
|---8--8--10-10--5-5--7-7---8--8--10-10----------------------------|
|----------8--8--3-3--5-5---------8--8---0--0--0--0--0--0-0-3--5~--|

Bridge:
|------------------------|
|------------------------|
|------------------------|
|------------------------| x2
|------------------------|
|--55557777888812121212--|
   ............ . . . .

|----------------------------|
|----------------------------|
|----------------------------|
|--777799991010101014141414--| x2 (Sorry, this part is sort of
|----------------------------|      confusing to read.)
|--55557777-8-8-8-812121212--|
   .......... . . . . . . .

|-------------|
|-------------|
|-------------|
|-------------|
|-------------|
|--5---5-5-3--|

Solo:
|--5b~--55--5/7-7-7--xx-----------17-17-17-17--|
|--5b~--55--5/7-7-7--xx-----------17-17-17-17--|
|--5b~--55--5/7-7-7--xx--775-7-5--17-17-17-17--|
|----------------------------------------------|
|----------------------------------------------|
|----------------------------------------------|

|--5-5--5b-------------5-5-5-5----------------------17-17-17-17--|
|--5-5--5b----8--------5-5-5-5-------7--------------17-17-17-17--|
|--5-5--5b-7b---7b--5--5-5-5-5--5-5--7--7-7-5--7--5-17-17-17-17--|
|----------------------------------------------------------------|
|----------------------------------------------------------------|
|----------------------------------------------------------------|

|--5--5-5--7-----------------------------------------------------|
|--5--5-5--7----------------6--5--------6--5---------------------|
|--5--5-5--7--5----5-5b--5--5--5--4--5--5--5---------------------|
|---------------7-----------------5--7---------------------------|
|----------------------------------------------------------------|
|----------------------------------------------0-0-000-0--0-0-3--|

Last note:
|--5~--|
|--5~--|
|--5~--|
|--7~--|
|--7~--|
|--5~--|


If you like the tab, then you might want to check out my cover of the song: 
https://www.youtube.com/watch?v=-W3bJib3GlE
Suggest correction
comments
print report bad tab
1 comment total.
+1 reply
aavvguitar 31 Apr 29, 2013 12:24 PM

I guess, tehe chorus is played like this:

|--x-5--x-5--x-5--x-5--x-5--x-5--x-3--x-3--|
|--x-5--x-5--x-5--x-5--x-7--x-7--x-3--x-3--|
|--x-5--x-5--x-5--x-5--x-7--x-7--x-4--x-4--|
|------------------------------------------| x3
|------------------------------------------|
|------------------------------------------|

Apart from that, very good tab :)

guest
You may want to rate the tab now too:
select rating
Wanna post a correction for this tab? Suggest correction