Oops, an error
Loading. Please wait.

Kill The Dj Bass Tab

version 4
version 4

Whole song

Interactive

413 views 1 this week
1 commentread comment
1 2 3 4 5
please rate
add to favorites
launch autoscroll
font size
0
reset
guitar tuner
Autoscroll
slow
fast
+/-
esc
set tempo
stop
Help us to improve Ultimate-Guitar.com Take our survey!
×
-----------------------------------------------------------------------------
                             Kill The DJ - Green Day
-----------------------------------------------------------------------------

Tabbed by: Country Bass
E-mail: aaron.white8@education.nsw.gov.au

Great new song, not the usual sound you hear from Green Day but a great and really catchy song.


Tuning: Standard

Intro

G|------------------------------|
D|------------------------------|
A|------------------------------|
E|--5--5--5--5--5--5--5--5-5-3--|

Verse

G|---------------------------------|
D|---------------------------------|
A|----------------5-5---5----------| x6
E|--5-5--5-5-5--5---------3-3-3-3--|


G|------------------------------------------------------------|
D|------------------------------------------------------------|
A|-----------7-6-5--5-5--5-------------------7-6-5--5-5--5----|
E|--5-5--5-5---------------3-3-3-3--5-5--5-5---------------3--|

Chorus

G|-----------------------------------|    |-----------------------------|
D|-----------------------------------|    |-----------------------------|
A|------------7-5-6-----------9-8-7--| x3 |-----------------------------|
E|--5-5-7-6-5-------5-5-7-6-5--------|    |-5--5--5--5--5--5--5--5-5-3--|

G|-------------------------------------------------------------------------|
D|------------7-6-5----------------------------7-6-5-----------------------|
A|----7-6-5-----------9-8-7-9-7-6-5----7-6-5-------------------------------|
E|--5-------5-------5----------------5-------5-------5--5--5--5--5--5-5-3--|

Bridge

G|--------|-------------------------------------|    |----------------------------------------------|
D|--------|-------------------------------------|    |----------------------------------------------|
A|--------|-------------------------------------| x2 |----------------------------------------------|
E|--5~----|-5-5-5-5-7-7-7-7-8-8-8-8-12-12-12-12-|    |-5-5-5-5-7-7-7-7-8-8-8-8-12-12-12-1212---5-53-|

This part I've tabbed out in the easiest way i could figure out but the studio 
recording has a few little licks in it at places

G|-----------------------------------|    
D|-----------------------------------|   
A|------------7-5-6-----------9-8-7--| x4
E|--5-5-7-6-5-------5-5-7-6-5--------|   

G|-------------------------------------------------------------------------|
D|------------7-6-5----------------------------7-6-5-----------------------|
A|----7-6-5-----------9-8-7-9-7-6-5----7-6-5-------------------------------|
E|--5-------5-------5----------------5-------5-------5--5--5--5--5--5-5-3--|

G|--------------------------| 
D|--------------------------| 
A|--------------------------| 
E|--5--5--5--5--5--5--5--5--| 

G|----------------------------------------|    |-------------|
D|----------------------------------------|    |-------------|
A|----------------------------------------| x6 |-------------|
E|-5-5-5-5-7-7-7-7-8-8-8-8-12-12-12-1212--|    |-3-----5-5-3-|

Outro

G|-----------------------------------|    
D|-----------------------------------|   
A|------------7-5-6-----------9-8-7--| x3
E|--5-5-7-6-5-------5-5-7-6-5--------|   

G|---------------------------------|
D|---------------------------------|
A|---------------------------------|
E|--5--5--5--5--5--5--5--5-5-3-5---|


Playing Order

Intro
Verse
Chorus
Verse
Chorus
Bridge
Outro


| /  slide up
| \  slide down
| h  hammer-on
| p  pull-off
| ~  vibrato
| +  harmonic
| x  Mute note
=============================================================================
Suggest correction
Give kudos to tab author, rate the tab!
1 2 3 4 5
comments
print report bad tab
1 comment total.
0 reply
SimounZon 129 wrote on August 19 2013, 03:38 am

Very Nice Tab MATE works good for me

guest
You may want to rate the tab now too:
select rating
Please do not post tabs as comments. Select "correction" instead!